Cifras e Tablaturas
Misc Cartoons

Misc Cartoons

Spongebob Squarepants Movie - Nickelodeon Opening

Cifras Cancelar Versão de Impressão
cifras

Misc Cartoons - Spongebob Squarepants Movie - Nickelodeon Opening

fixar na tela  
Exibindo: vídeo-aula ver clipes redimensionar

Tom:

  
Intro 

e|---------------------------------------------------------------------------| 
B|---------------------------------------------------------------------------| 
G|---------------------------------------------------------------------------| 
D|---14--15-17--14---------14--15-17--14----------------14-------------------| 
A|-----------------17-15-----------------17-15-15-15h17------17--------------| 
E|---------------------------------------------------------------------------| 

e|---------------------------------------------------------------------------| 
B|---------------------------------------------------------------------------| 
G|---------------------------------------------------------------------------| 
D|---14--15-17--14---------14--15-17--14-------------------------------------| 
A|-----------------17-15-----------------17-15-------------------------------| 
E|---------------------------------------------------------------------------| 



************************************ 


| h   Hammer-on 


************************************ 
  

top 5 | misc cartoons
top infantis
Outras músicas do artista letras do(a) Misc Cartoons
Top cifras »Top artistas »
Petaxxon Comunicação Online
Cifras.com.br - Melhor e mais completo site de cifras e tablaturas do Brasil
Mais de 1 milhão de acordes de músicas cadastradas desde 2003
As informações contidas no nosso site são colaborações de seus usuários e podem conter erros, sendo assim, não nos responsabilizamos sobre nenhuma destas.
close
menos
mais
close
Cor dos acordes:

Cor da letra:

 

save
close
close
 
redimensionar