Cifras e Tablaturas
Misc Cartoons

Misc Cartoons

The Adventure Zone The Crystal Kingdom - See You Later

Cifras Cancelar Versão de Impressão
cifras

Misc Cartoons - The Adventure Zone The Crystal Kingdom - See You Later

fixar na tela  
Exibindo: vídeo-aula ver clipes redimensionar

Tom:

  
Background melody 
e|-------------------------|-------------------------|-------------------------|-------------------------| 
B|-------------------------|-------------------------|-------------------------|-------------------------| 
G|----14----14----14----14-|----14----14----14----14-|----14----14----14----14-|----14----14----14----14-| 
D|-12----12----12----12----|-12----12----12----12----|-11----11----11----11----|-11----11----11----11----| 
A|-------------------------|-------------------------|-------------------------|-------------------------| 
E|-------------------------|-------------------------|-------------------------|-------------------------| 

e|-------------------------|-------------------------||----------------------------|-------------------------| 
B|-------------------------|-------------------------||----------------------------|-------------------------| 
G|----14----14----14----14-|----14----14----14----14-||-------14----14----14----14-|----14----14----14----14-| 
D|-12----12----12----12----|-12----12----12----12----||-14/16----16----16----16----|-14----14----14----14----| 
A|-------------------------|-------------------------||----------------------------|-------------------------| 
E|-------------------------|-------------------------||----------------------------|-------------------------| 

e|-------------------------|-------------------------|-------------------------|-------------------------| 
B|-------------------------|-------------------------|-------------------------|-------------------------| 
G|----14----14----14----14-|----14----14----14----14-|----14----14----14----14-|----14----14----14----14-| 
D|-12----12----12----12----|-12----12----12----12----|-11----11----11----11----|-11----11----11----11----| 
A|-------------------------|-------------------------|-------------------------|-------------------------| 
E|-------------------------|-------------------------|-------------------------|-------------------------| 

e|-------------------------|-------------------------||----------------------------|-------------------------| 
B|-------------------------|-------------------------||----------------------------|-------------------------| 
G|----14----14----14----14-|----14----14----14----14-||-------14----14----14----14-|----14----14----14----14-| 
D|-12----12----12----12----|-12----12----12----12----||-14/16----16----16----16----|-14----14----14----14----| 
A|-------------------------|-------------------------||----------------------------|-------------------------| 
E|-------------------------|-------------------------||----------------------------|-------------------------| 

e|-------------------------|-------------------------|-------------------------|-------------------------| 
B|-------------------------|-------------------------|-------------------------|-------------------------| 
G|----14----14----14----14-|----14----14----14----14-|----14----14----14----14-|----14----14----14----14-| 
D|-12----12----12----12----|-12----12----12----12----|-11----11----11----11----|-11----11----11----11----| 
A|-------------------------|-------------------------|-------------------------|-------------------------| 
E|-------------------------|-------------------------|-------------------------|-------------------------| 

e|-------------------------|-------------------------||----------------------------------| 
B|-------------------------|-------------------------||----------------------------------| 
G|----14----14----14----14-|----14----14----14----14-||-------14----14----14----13-------| 
D|-12----12----12----12----|-12----12----12----12----||-14/16----16----14----14----------| 
A|-------------------------|-------------------------||----------------------------------| 
E|-------------------------|-------------------------||----------------------------------| 

e|-------------------------|-------------------------|-------------------------|-------------------------| 
B|-------------------------|-------------------------|-------------------------|-------------------------| 
G|----14----14----14----14-|----14----14----14----14-|----14----14----14----14-|----14----14----14----14-| 
D|-12----12----12----12----|-12----12----12----12----|-11----11----11----11----|-11----11----11----11----| 
A|-------------------------|-------------------------|-------------------------|-------------------------| 
E|-------------------------|-------------------------|-------------------------|-------------------------| 

e|-------------------------|-------------------------||----------------------------|-------------------------| 
B|-------------------------|-------------------------||----------------------------|-------------------------| 
G|----14----14----14----14-|----14----14----14----14-||-------14----14----14----14-|----14----14----14----14-| 
D|-12----12----12----12----|-12----12----12----12----||-14/16----16----16----16----|-14----14----14----14----| 
A|-------------------------|-------------------------||----------------------------|-------------------------| 
E|-------------------------|-------------------------||----------------------------|-------------------------| 

e|-------------------------|-------------------------|-------------------------|-------------------------| 
B|-------------------------|-------------------------|-------------------------|-------------------------| 
G|----14----14----14----14-|----14----14----14----14-|----14----14----14----14-|----14----14----14----14-| 
D|-12----12----12----12----|-12----12----12----12----|-11----11----11----11----|-11----11----11----11----| 
A|-------------------------|-------------------------|-------------------------|-------------------------| 
E|-------------------------|-------------------------|-------------------------|-------------------------| 

e|-------------------------|-------------------------||----------------------------|-------------------------| 
B|-------------------------|-------------------------||----------------------------|-------------------------| 
G|----14----14----14----14-|----14----14----14----14-||-------14----14----14----14-|----14----14----14----14-| 
D|-12----12----12----12----|-12----12----12----12----||-14/16----16----16----16----|-14----14----14----14----| 
A|-------------------------|-------------------------||----------------------------|-------------------------| 
E|-------------------------|-------------------------||----------------------------|-------------------------| 

e|-------------------------|-------------------------|-------------------------|-------------------------| 
B|-------------------------|-------------------------|-------------------------|-------------------------| 
G|----14----14----14----14-|----14----14----14----14-|----14----14----14----14-|----14----14----14----14-| 
D|-12----12----12----12----|-12----12----12----12----|-11----11----11----11----|-11----11----11----11----| 
A|-------------------------|-------------------------|-------------------------|-------------------------| 
E|-------------------------|-------------------------|-------------------------|-------------------------| 

e|-------------------------|-------------------------||----------------------------------| 
B|-------------------------|-------------------------||----------------------------------| 
G|----14----14----14----14-|----14----14----14----14-||-------14----14----14----13-------| 
D|-12----12----12----12----|-12----12----12----12----||-14/16----16----14----14----------| 
A|-------------------------|-------------------------||----------------------------------| 
E|-------------------------|-------------------------||----------------------------------| 

Main melody 
e|-17----------|----------------|-17----------|-------------| 
B|-------14-15-|-14-15-17-15-14-|-------12-14-|-12-14-15-17-| 
G|-------------|----------------|-------------|-------------| 
D|-------------|----------------|-------------|-------------| 
A|-------------|----------------|-------------|-------------| 
E|-------------|----------------|-------------|-------------| 

e|-17----------|----------------|-14----17----------17----------| 
B|-------14-15-|-14-15-17-15-17-|-------------17----------14-15-| 
G|-------------|----------------|-------------------------------| 
D|-------------|----------------|-------------------------------| 
A|-------------|----------------|-------------------------------| 
E|-------------|----------------|-------------------------------| 

e|-17----------|----------------|-17----------|-------------| 
B|-------14-15-|-14-15-17-15-14-|-------12-14-|-12-14-15-17-| 
G|-------------|----------------|-------------|-------------| 
D|-------------|----------------|-------------|-------------| 
A|-------------|----------------|-------------|-------------| 
E|-------------|----------------|-------------|-------------| 

e|-17----------|----------------|-14----17----------17----------| 
B|-------14-15-|-14-15-17-15-17-|-------------17----------14-15-| 
G|-------------|----------------|-------------------------------| 
D|-------------|----------------|-------------------------------| 
A|-------------|----------------|-------------------------------| 
E|-------------|----------------|-------------------------------| 

e|-5--------|-----------|-5--------|---------||-5--------|-----------|------5----12-| 
B|----------|-----5-----|----------|-------5-||----------|-----5---5-|-7------------| 
G|------6-7-|-6-7---7-6-|------4-6-|-4-6-7---||------6-7-|-6-7---7---|--------------| 
D|----------|-----------|----------|---------||----------|-----------|--------------| 
A|----------|-----------|----------|---------||----------|-----------|--------------| 
E|----------|-----------|----------|---------||----------|-----------|--------------| 

e|-17----------|----------------|-17----------|-------------| 
B|-------14-15-|-14-15-17-15-14-|-------12-14-|-12-14-15-17-| 
G|-------------|----------------|-------------|-------------| 
D|-------------|----------------|-------------|-------------| 
A|-------------|----------------|-------------|-------------| 
E|-------------|----------------|-------------|-------------| 

e|-17----------|----------------|-14----17----------17----------| 
B|-------14-15-|-14-15-17-15-17-|-------------17----------14-15-| 
G|-------------|----------------|-------------------------------| 
D|-------------|----------------|-------------------------------| 
A|-------------|----------------|-------------------------------| 
E|-------------|----------------|-------------------------------| 

e|-17----------|----------------|-17----------|-------------| 
B|-------14-15-|-14-15-17-15-14-|-------12-14-|-12-14-15-17-| 
G|-------------|----------------|-------------|-------------| 
D|-------------|----------------|-------------|-------------| 
A|-------------|----------------|-------------|-------------| 
E|-------------|----------------|-------------|-------------| 

e|-17----------|----------------|-14----17----------17----------| 
B|-------14-15-|-14-15-17-15-17-|-------------17----------14-15-| 
G|-------------|----------------|-------------------------------| 
D|-------------|----------------|-------------------------------| 
A|-------------|----------------|-------------------------------| 
E|-------------|----------------|-------------------------------| 

e|-5--------|-----------|-5--------|---------||-5--------|-----------|------5----12-| 
B|----------|-----5-----|----------|-------5-||----------|-----5---5-|-7------------| 
G|------6-7-|-6-7---7-6-|------4-6-|-4-6-7---||------6-7-|-6-7---7---|--------------| 
D|----------|-----------|----------|---------||----------|-----------|--------------| 
A|----------|-----------|----------|---------||----------|-----------|--------------| 
E|----------|-----------|----------|---------||----------|-----------|--------------| 


*********************************** 

| /   Slide-up 

*********************************** 
  

top 5 | misc cartoons
top infantis
Outras músicas do artista letras do(a) Misc Cartoons
Top cifras »Top artistas »
Petaxxon Comunicação Online
Cifras.com.br - Melhor e mais completo site de cifras e tablaturas do Brasil
Mais de 1 milhão de acordes de músicas cadastradas desde 2003
As informações contidas no nosso site são colaborações de seus usuários e podem conter erros, sendo assim, não nos responsabilizamos sobre nenhuma destas.
close
menos
mais
close
Cor dos acordes:

Cor da letra:

 

save
close
close
 
redimensionar