Cifras e Tablaturas
Misc Christmas

Misc Christmas

Es Ist Ein Ros Entsprungen

Cifras Cancelar Versão de Impressão
cifras

Misc Christmas - Es Ist Ein Ros Entsprungen

fixar na tela  
Exibindo: vídeo-aula ver clipes redimensionar
  
Capo 2

Verse     
   G                     C         G           Em       C            G 
E|---------------------|-0-------------------|---------------------|---------------------| 
B|------3----3----3----|-1----3----3---------|-0---------1---------|-0-------------------| 
G|------0----0----0----|------0----0---------|-0---------0---------|-0----2----0---------| 
D|------0---------0----|------0---------0----|------2---------2----|------0---------0----| 
A|---------------------|-3-------------------|-----------3---------|------0--------------| 
E|-3---------3---------|-----------3---------|-0-------------------|-3---------3---------| 

   D7        G                                 C         G           Em        C 
E|---------------------|---------------------|-0-------------------|---------------------| 
B|---------------------|------3----3----3----|-1----3----3---------|-0---------1---------| 
G|-----------0---------|------0----0----0----|------0----0---------|-0---------0---------| 
D|-4--------------0----|------0---------0----|------0---------0----|------2---------2----| 
A|------0--------------|---------------------|-3-------------------|-----------3---------| 
E|-2---------3---------|-3---------3---------|-----------3---------|-0-------------------| 

   G                     D7        G                     A    F#m    C    Am   D 
E|---------------------|---------------------|---------------------|---------------------| 
B|-0-------------------|---------------------|------0--------------|---------------------| 
G|-0----2----0---------|-----------0---------|-----------2---------|-0-------------------| 
D|------0---------0----|-4--------------0----|------0---------4----|------2----0---------| 
A|------0--------------|------0--------------|-----------0---------|-3----0---------0----| 
E|-3---------3---------|-2---------3---------|-3--------------2----|-----------2---------| 

        G                C         G           Em        C           G 
E|---------------------|-0-------------------|---------------------|---------------------| 
B|------3----3----3----|-1----3----3---------|-0---------1---------|-0-------------------| 
G|------0----0----0----|------0----0---------|-0---------0---------|-0----2----0---------| 
D|-0----0---------0----|------0---------0----|------2---------2----|------0---------0----| 
A|---------------------|-3-------------------|-----------3---------|------0--------------| 
E|-----------3---------|-----------3---------|-0-------------------|-3---------3---------| 

    D7       G 
E|---------------------|-----------------| 
B|---------------------|-----------0-----| 
G|-----------0---------|-----------0-----| 
D|-4--------------0----|------0----0-----| 
A|------0--------------|-2---------------| 
E|-2---------3---------|-----------3-----| 
  

cifra enviadasem correções
enviado porenviada por:abelamin
top 5 | misc christmas
top rock'n roll
Outras músicas do artista letras do(a) Misc Christmas
Top cifras »Top artistas »
Petaxxon Comunicação Online
Cifras.com.br - Melhor e mais completo site de cifras e tablaturas do Brasil
Mais de 1 milhão de acordes de músicas cadastradas desde 2003
As informações contidas no nosso site são colaborações de seus usuários e podem conter erros, sendo assim, não nos responsabilizamos sobre nenhuma destas.
close
menos
mais
close
Cor dos acordes:

Cor da letra:

 

save
close
close
 
redimensionar