Cifras e Tablaturas
Misc Christmas

Misc Christmas

Kis Karácsony Nagy Karácsony

Cifras Cancelar Versão de Impressão
cifras

Misc Christmas - Kis Karácsony Nagy Karácsony

fixar na tela  
Exibindo: vídeo-aula ver clipes redimensionar

Tom:

  3/4, ~85 bpm, standard tuning 

First two notes in every measure are 8th notes 

e|-----------------|------------------|-----------------|------------------| 
B|-------------0---|------------------|-------------0---|------------------| 
G|-0------0--------|--2-0----2----2---|-0------0--------|--2-0----2----2---| 
D|---0-------------|------------------|---0-------------|------------------| 
A|-----------------|------------------|-----------------|------------------| 
E|-----------------|------------------|-----------------|------------------| 

 Kis ka- rá- csony  nagy ka rá-csony   ki-sült -e  már     a ka- lá- csom 

E|-----------------|------------------|-----------------|------------------| 
b|-0-1----3--------|--1-0-------------|-0-1----3--------|--0---------------| 
G|-------------0---|---------2----2---|-------------0---|----2----0----0---| 
D|-----------------|------------------|-----------------|------------------| 
A|-----------------|------------------|-----------------|------------------| 
E|-----------------|------------------|-----------------|------------------| 

  Ha ki- sült  már    i-de  vé-  le   hadd e- gyem meg   me-le-  gé-  ben. 
  

top 5 | misc christmas
top rock'n roll
Outras músicas do artista letras do(a) Misc Christmas
Top cifras »Top artistas »
Petaxxon Comunicação Online
Cifras.com.br - Melhor e mais completo site de cifras e tablaturas do Brasil
Mais de 1 milhão de acordes de músicas cadastradas desde 2003
As informações contidas no nosso site são colaborações de seus usuários e podem conter erros, sendo assim, não nos responsabilizamos sobre nenhuma destas.
close
menos
mais
close
Cor dos acordes:

Cor da letra:

 

save
close
close
 
redimensionar