Cifras e Tablaturas
Misc Christmas

Misc Christmas

Oh Denneboom

Cifras Cancelar Versão de Impressão
cifras

Misc Christmas - Oh Denneboom

fixar na tela  
Exibindo: vídeo-aula ver clipes redimensionar

Tom:

  
Verse 
Oh denneboom,   oh denneboom. wat zijn je takken wonderschoon. 
e|-----0-0-0---|---2-4-4-4---|---4-2-4-5---|-----2-0-0---| 
B|---0---------|-------------|-------------|---4---------| 
G|-------------|-------------|-------------|-------------| 
D|-------------|-------------|-------------|-------------| 
A|-------------|-------------|-------------|-------------| 
E|-------------|-------------|-------------|-------------| 

ik heb je laatst              in't bos zien staan. 
e|-----0-0-0---|---2-4-4-4---|---4-2-4-5---|-----2-0-0---| 
B|---0---------|-------------|-------------|---4---------| 
G|-------------|-------------|-------------|-------------| 
D|-------------|-------------|-------------|-------------| 
A|-------------|-------------|-------------|-------------| 
E|-------------|-------------|-------------|-------------| 

toen zaten er                 geen kaarsjes aan.   
e|---7-7-4-9---|--7-7-5-5----|---5-5-2-7---|--5-5-4-4----| 
B|-------------|-------------|-------------|-------------| 
G|-------------|-------------|-------------|-------------| 
D|-------------|-------------|-------------|-------------| 
A|-------------|-------------|-------------|-------------| 
E|-------------|-------------|-------------|-------------| 

Oh denneboom,   oh denneboom. wat zijn je takken wonderschoon. 
e|-----0-0-0---|---2-4-4-4---|---4-2-4-5---|-----2-0-0---| 
B|---0---------|-------------|-------------|---4---------| 
G|-------------|-------------|-------------|-------------| 
D|-------------|-------------|-------------|-------------| 
A|-------------|-------------|-------------|-------------| 
E|-------------|-------------|-------------|-------------| 
  

top 5 | misc christmas
top rock'n roll
Outras músicas do artista letras do(a) Misc Christmas
Top cifras »Top artistas »
Petaxxon Comunicação Online
Cifras.com.br - Melhor e mais completo site de cifras e tablaturas do Brasil
Mais de 1 milhão de acordes de músicas cadastradas desde 2003
As informações contidas no nosso site são colaborações de seus usuários e podem conter erros, sendo assim, não nos responsabilizamos sobre nenhuma destas.
close
menos
mais
close
Cor dos acordes:

Cor da letra:

 

save
close
close
 
redimensionar