Cifras e Tablaturas
Misc Christmas

Misc Christmas

Stille Nacht

Cifras Cancelar Versão de Impressão
cifras

Misc Christmas - Stille Nacht

fixar na tela  
Exibindo: vídeo-aula ver clipes redimensionar
    
Capo: 2

   G                                                
E|---------0-----------|---------------------|---------0-----------|---------------------| 
B|-3-----------3-------|-0-------------------|-3-----------3-------|-0-------------------| 
G|---------------------|---------0-----------|---------------------|---------0-----------| 
D|-----0-------0-------|-------------0-------|-----0-------0-------|-------------0-------| 
A|---------------------|-----2---------------|---------------------|-----2---------------| 
E|-3-------------------|-3-------------------|-3-------------------|-3-------------------| 


   D                                           G 
E|-5-----------5-------|-2-------------------|-3-----------3-------|-------------1-------| 
B|---------7-----------|---------3-----------|---------------------|-3-------------------| 
G|---------------------|---------------------|---------0-----------|---------0-----------| 
D|-----0-------0-------|-----0-------0-------|-----0-------0-------|-------------0-------| 
A|-0-------------------|-0-------------------|---------------------|-----2---------------| 
E|---------------------|---------------------|-3-------------------|-3-------------------| 


   C                                           G 
E|-0-----------0-------|-3-------2---0-------|---------0-----------|---------------------| 
B|---------------------|---------------------|-3-----------3-------|-0-------------------| 
G|---------0-----------|---------------------|---------------------|---------0-----------| 
D|-----2-------2-------|-----2-------2-------|-----0-------0-------|-------------0-------| 
A|-3-------------------|-3-------------------|---------------------|-----2---------------| 
E|---------------------|---------------------|-3-------------------|-3-------------------| 


   C                                           G 
E|-0-----------0-------|-3-------2---0-------|---------0-----------|---------------------| 
B|---------------------|---------------------|-3-----------3-------|-0-------------------| 
G|---------0-----------|---------------------|---------------------|---------0-----------| 
D|-----2-------2-------|-----2-------2-------|-----0-------0-------|-------------0-------| 
A|-3-------------------|-3-------------------|---------------------|-----2---------------| 
E|---------------------|---------------------|-3-------------------|-3-------------------| 


   C                                           G 
E|-5-----------5-------|-8-------5-----------|-3-------------------|-7---------------| 
B|---------5-----------|-------------7-------|---------0-----------|-0---0-----------| 
G|---------------------|---------------------|-----0-------0-------|---------0-------| 
D|-----0-------0-------|-----0-------0-------|---------------------|-----------------| 
A|-0-------------------|-0-------------------|---------------------|-----------------| 
E|---------------------|---------------------|-3-------------------|-7---------------| 


                         D                     G 
E|-3-------------------|---------------------|---------------------|-3------| 
B|---------3---0-------|-3---1---------------|---------------------|-0------| 
G|---------------------|-------------2-------|-0-------------------|-0------| 
D|-----0-------0-------|---------0-----------|---------0----0------|--------| 
A|---------------------|-0---0-------0-------|-----2---------------|--------| 
E|-3-------------------|---------------------|-3-------------------|-3------| 
  

cifra enviadasem correções
enviado porenviada por:sabrjoao
top 5 | misc christmas
top rock'n roll
Outras músicas do artista letras do(a) Misc Christmas
Top cifras »Top artistas »
Petaxxon Comunicação Online
Cifras.com.br - Melhor e mais completo site de cifras e tablaturas do Brasil
Mais de 1 milhão de acordes de músicas cadastradas desde 2003
As informações contidas no nosso site são colaborações de seus usuários e podem conter erros, sendo assim, não nos responsabilizamos sobre nenhuma destas.
close
menos
mais
close
Cor dos acordes:

Cor da letra:

 

save
close
close
 
redimensionar