Cifras e Tablaturas
Misc Christmas

Misc Christmas

Süßer Die Glocken Nie Klingen

Cifras Cancelar Versão de Impressão

Misc Christmas - Süßer Die Glocken Nie Klingen

Tom: A

  			


Verse 
   A                                    E 
E|-------------------|----------------|-0--------------|----------------|-------------------| 
B|-2--------2---2----|-2----0----2----|----------------|-0--------------|-0--------0---0----| 
G|-------------------|----------------|----------------|----------------|-------------------| 
D|------2-------2----|------2----2----|------0----0----|------0----0----|------0-------0----| 
A|-0-----------------|-0--------------|----------------|----------------|-------------------| 
E|-------------------|----------------|-0--------------|-0--------------|-0-----------------| 

                    A 
E|----------------|----------------|----------------|-0--------0---0----|-0--------------| 
B|-0---------0----|-2--------------|----------------|-------------------|------2---------| 
G|------2---------|----------------|----------------|-------------------|-----------2----| 
D|------0----0----|------2----2----|------2----2----|------2-------2----|------2----2----| 
A|----------------|-0--------------|-0--------------|-0-----------------|-0--------------| 
E|-0--------------|----------------|----------------|-------------------|----------------| 

   A-long           D                A                   
E|-5--------------|-2--------------|-0--------2---0----|-0--------------|----------------| 
B|----------------|----------------|-------------------|------3----0----|----------------| 
G|------2----2----|------2----2----|-------------------|----------------|-2--------------| 
D|-0--------------|-0--------------|------2-------2----|------2----2----|------2----2----| 
A|----------------|----------------|-0-----------------|----------------|-0--------------| 
E|----------------|----------------|-------------------|-0--------------|----------------| 

                    E                   A                E                   A 
E|----------------|-------------------|----------------|-0-----------------|----------------| 
B|----------------|-0--------0---0----|-2----2----2----|----------3---0----|-2--------------| 
G|----------------|-------------------|----------------|-------------------|----------------| 
D|------2----2----|------0-------0----|------2----2----|------0-------0----|------2----2----| 
A|-0--------------|-------------------|-0--------------|-------------------|-0--------------| 
E|----------------|-0-----------------|----------------|-0-----------------|----------------| 

   E                   A                E                   A 
E|-------------------|----------------|-0-----------------|----------------|-0-----------------| 
B|-0--------0---0----|-2----2----2----|----------3---0----|-2--------------|----------3---2----| 
G|-------------------|----------------|-------------------|----------------|-------------------| 
D|------0-------0----|------2----2----|------0-------0----|------2----2----|------2-------2----| 
A|-------------------|-0--------------|-------------------|-0--------------|-0-----------------| 
E|-0-----------------|----------------|-0-----------------|----------------|-------------------| 

                    A-long                            E 
E|----------------|-5--------------|-2--------------|-0--------2---0----|-0--------------| 
B|-2----0---------|----------------|----------------|-------------------|------3----0----| 
G|-----------2----|------2----2----|------2----2----|------1-------1----|----------------| 
D|------2----2----|-0--------------|-0--------------|-------------------|------2----2----| 
A|-0--------------|----------------|----------------|-------------------|----------------| 
E|----------------|----------------|----------------|-0-----------------|-0--------------| 

   A 
E|----------------|--------| 
B|----------------|-2------| 
G|-2--------------|-2------| 
D|------2----2----|-2------| 
A|-0--------------|-0------| 
E|----------------|--------| 
    	
fixar
fixar inscrever-se

enviado porenviado por: joaoewerton
cifra enviadaCorrigida por: sem correções
logo top cifrasComente
ico música do artistaMúsicas deste artista
ico curtiuCurtiu?
ico destaqueDestaque
Petaxxon Comunicação Online

Cifras.com.br - Melhor e mais completo site de cifras e tablaturas do Brasil Mais de 1 milhão de acordes de músicas cadastradas desde 2003
As informações contidas no nosso site são colaborações de seus usuários e podem conter erros, sendo assim, não nos responsabilizamos sobre nenhuma destas.

close
menos
mais
close
Cor dos acordes:

Cor da letra:

close
Alinhar acordes a direita Alinhar acordes a esquerda Alinhar acordes em baixo Alinhar acordes no topo
close
  Mostrar todos os acordes Esconder acordes muito fáceis Esconder acordes fáceis Esconder acordes intermediários
redimensionar
glossário