Cifras e Tablaturas
Misc Computer Games

Misc Computer Games

Chrono Trigger - Yearnings Of The Wind - Chinese Nes Version

Cifras Cancelar Versão de Impressão

Misc Computer Games - Chrono Trigger - Yearnings Of The Wind - Chinese Nes Version

Tom:

  			Title:  Chrono Trigger - Yearnings Of The Wind (Chinese NES version) 
Author: Matias Lavik 


e|-------0-----|-1----0--------------|---------------------|---------------------| 
B|-3-----------|-----------1---------|-3--------------3----|-1-------------------| 
G|-------------|------2---------2----|-----------3---------|------2---------0----| 
D|-------------|-0-------------------|------3--------------|-----------3---------| 
A|-------------|---------------------|-1-------------------|-0---------3---------| 
E|-------------|---------------------|---------------------|---------------------| 

e|---------------------|---------------------|-0---------1-----|----------------1----| 
B|---------------------|----------------1----|-----------------|-1---------1---------| 
G|-2---------0---------|-----------2---------|-----------0-----|------0--------------| 
D|------3---------2----|-2----3----0---------|------0----------|---------------------| 
A|---------------------|---------------------|-----------------|-3-------------------| 
E|-1---------0---------|-3-------------------|-3---------------|---------------------| 

e|-0-----0-----|-1----0--------------|---------------------|---------------------| 
B|-------------|-----------1---------|-3--------------3----|-1-------------------| 
G|-------2-----|------2---------2----|-----------3---------|------2---------0----| 
D|-------------|-0-------------------|------3--------------|-----------3---------| 
A|-------------|---------------------|-1-------------------|-0---------3---------| 
E|-------------|---------------------|---------------------|---------------------| 

e|---------------------|---------------------|-0-------------------|----------------3----| 
B|---------------------|----------------1----|------3----1----3----|-3-------------------| 
G|-2---------0---------|-----------2---------|---------------------|-----------0---------| 
D|------3---------2----|-2----3----0---------|------0--------------|-0----2--------------| 
A|---------------------|---------------------|---------------------|---------------------| 
E|-1---------0---------|-3-------------------|-3-------------------|---------------------| 

e|-1----0--------------|-------------|---------------------|-------------|---------------------| 
B|-----------1---------|-3------3----|-1-------------------|-------------|----------------1----| 
G|----------------2----|-------------|------2---------0----|-2-----0-----|-----------2---------| 
D|-3-------------------|-3-----------|-2---------3---------|-------------|-2----3--------------| 
A|---------------------|-------------|-----------5---------|-3-----4-----|-3-------------------| 
E|---------------------|-------------|---------------------|-------------|---------------------| 

e|-0-----1-----|--------|-------0-----|-1----0--------------|-------------|---------------------| 
B|-------------|-1------|-------------|-----------1---------|-3------3----|-1-------------------| 
G|-------------|--------|-------------|----------------2----|-------------|------2---------0----| 
D|-------------|-3------|-2-----------|-3-------------------|-3-----------|-2---------3---------| 
A|-3-----------|--------|-------------|---------------------|-------------|-----------5---------| 
E|-------------|--------|-------------|---------------------|-------------|---------------------| 

e|-------------|---------------------|-0-------------------|-3------| 
B|-------------|-5--------------1----|------3----1----3----|-3------| 
G|-2-----0-----|-----------2---------|---------------------|--------| 
D|-------------|-2----3--------------|---------------------|--------| 
A|-3-----4-----|---------------------|-3-------------------|--------| 
E|-------------|---------------------|---------------------|--------| 
    	
fixar
fixar inscrever-se

enviado porenviado por: hugo_rodrigues
cifra enviadaCorrigida por: sem correções
logo top cifrasComente
ico música do artistaMúsicas deste artista
ico curtiuCurtiu?
ico destaqueDestaque
Petaxxon Comunicação Online

Cifras.com.br - Melhor e mais completo site de cifras e tablaturas do Brasil Mais de 1 milhão de acordes de músicas cadastradas desde 2003
As informações contidas no nosso site são colaborações de seus usuários e podem conter erros, sendo assim, não nos responsabilizamos sobre nenhuma destas.

close
menos
mais
close
Cor dos acordes:

Cor da letra:

close
Alinhar acordes a direita Alinhar acordes a esquerda Alinhar acordes em baixo Alinhar acordes no topo
close
  Mostrar todos os acordes Esconder acordes muito fáceis Esconder acordes fáceis Esconder acordes intermediários
redimensionar
glossário