Cifras e Tablaturas
Misc Computer Games

Misc Computer Games

Cry Of Fear - Nothing Left

Cifras Cancelar Versão de Impressão
cifras

Misc Computer Games - Cry Of Fear - Nothing Left

fixar na tela  
Exibindo: vídeo-aula ver clipes redimensionar

Tom:

  
Intro                                                 x2 
e|-------------|-------------|-------------|-------------| 
B|-------0-----|-------0-----|-------0-----|-------0-----| Guitar 1 
G|-----0---0---|-----0---0---|-----0---0---|-----0---0---| 
D|---4-------4-|---4-------4-|---4-------4-|---4-------4-| 
A|-2-----------|-2-----------|-3-----------|-3-----------| 
E|-------------|-------------|-------------|-------------| 

Chorus                                                x2 
e|-------------|-------------|-------------|-------------| 
B|-------0-----|-------0-----|-------0-----|-------0-----| Guitar 1 
G|-----0---0---|-----0---0---|-----0---0---|-----0---0---| 
D|---4-------4-|---4-------4-|---4-------4-|---4-------4-| 
A|-2-----------|-2-----------|-3-----------|-3-----------| 
E|-------------|-------------|-------------|-------------| 

e|-------------|-------------|-------------|-------------| 
B|-------------|-------------|-------------|-------------| Guitar 2 
G|-4-4-4-4-4-4-|-4-4-4-4-4-4-|-5-5-5-5-5-5-|-5-5-5-5-5-5-| 
D|--4-4-4-4-4-4|--4-4-4-4-4-4|--5-5-5-5-5-5|--5-5-5-5-5-5| 
A|-------------|-------------|-------------|-------------| 
E|-------------|-------------|-------------|-------------| 

Verse                                                 x2 
e|-------------|-------------|-------------|-------------| 
B|-------0-----|-------0-----|-------0-----|-------0-----| Guitar 1 
G|-----0---0---|-----0---0---|-----0---0---|-----0---0---| 
D|---4-------4-|---4-------4-|---4-------4-|---4-------4-| 
A|-2-----------|-2-----------|-3-----------|-3-----------| 
E|-------------|-------------|-------------|-------------| 

Chorus                                                x2 
e|-------------|-------------|-------------|-------------| 
B|-------0-----|-------0-----|-------0-----|-------0-----| Guitar 1 
G|-----0---0---|-----0---0---|-----0---0---|-----0---0---| 
D|---4-------4-|---4-------4-|---4-------4-|---4-------4-| 
A|-2-----------|-2-----------|-3-----------|-3-----------| 
E|-------------|-------------|-------------|-------------| 

e|-------------|-------------|-------------|-------------| 
B|-------------|-------------|-------------|-------------| Guitar 2 
G|-4-4-4-4-4-4-|-4-4-4-4-4-4-|-5-5-5-5-5-5-|-5-5-5-5-5-5-| 
D|--4-4-4-4-4-4|--4-4-4-4-4-4|--5-5-5-5-5-5|--5-5-5-5-5-5| 
A|-------------|-------------|-------------|-------------| 
E|-------------|-------------|-------------|-------------| 

Outro                                                 x2 
e|-------------|-------------|-------------|-------------| 
B|-------0-----|-------0-----|-------0-----|-------0-----| Guitar 1 
G|-----0---0---|-----0---0---|-----0---0---|-----0---0---| 
D|---4-------4-|---4-------4-|---4-------4-|---4-------4-| 
A|-2-----------|-2-----------|-3-----------|-3-----------| 
E|-------------|-------------|-------------|-------------| 
 
  

top 5 | misc computer games
top diversos
Outras músicas do artista letras do(a) Misc Computer Games
Top cifras »Top artistas »
Petaxxon Comunicação Online
Cifras.com.br - Melhor e mais completo site de cifras e tablaturas do Brasil
Mais de 1 milhão de acordes de músicas cadastradas desde 2003
As informações contidas no nosso site são colaborações de seus usuários e podem conter erros, sendo assim, não nos responsabilizamos sobre nenhuma destas.
close
menos
mais
close
Cor dos acordes:

Cor da letra:

 

save
close
close
 
redimensionar