Cifras e Tablaturas
Misc Computer Games

Misc Computer Games

David Pencil - King Arthurs Gold

Cifras Cancelar Versão de Impressão
cifras

Misc Computer Games - David Pencil - King Arthurs Gold

fixar na tela  
Exibindo: vídeo-aula ver clipes redimensionar
  

Verse 
e|-----------------------------------------------------------------------------| 
B|-----------------------------------------------------------------------------| 
G|----5--5--7h--5----------8-7---5---------------------------------------------| 
D|---------------------------------8---------5--8-6-5--------------------------| 
A|-------------------------------------------------------------6--8------------| 
E|-------------------------------------------------------------------8---------| 

e|-----------------------------------------------------------------------------| 
B|-----------------------------------------------------------------------------| 
G|---------5--5--7h--5---/10--8---7-5-------------------8--------5-7----3------| 
D|-----5-8------------------------------------5-6--8/10-------------------3----| 
A|---6-------------------------------------------------------------------------| 
E|-----------------------------------------------------------------------------| 

e|-----------------------------------------------------------------------------| 
B|-----------------------------------------------------------------------------| 
G|--------------5-5-7h--5---8-7---5--------------------------------------------| 
D|----------------------------------8----5--8-6-5------------------------------| 
A|---------------------------------------------------6--8----------------------| 
E|--x---x-------------------------------------------------8--------------------| 

e|-----------------------------------------------------------------------------| 
B|-----------------------------------------------------------------------------| 
G|---------5-5-7h--5-----/10--8--7-5-------------------------------------------| 
D|---------------------------------------5--8-6-5------------------------------| 
A|---------------------------------------------------6--8----------------------| 
E|--------------------------------------------------------8--------------------| 

e|-----------------------------------------------------------------------------| 
B|-----------------------------------------------------------------------------| 
G|-----------------------------------------------------------------------------| 
D|---------6-5----------------------6-5---------------------6-5----------------| 
A|----/8--8------6-5----------/8--8-------6-6/8-------/8--8------6-5-----------| 
E|-------------------6------------------------------------------------6--------| 

e|-----------------------------------------------------------------------------| 
B|-----------------------------------------------------------------------------| 
G|-----------------------------5-5/10--------10-13-12--10----------------------| 
D|---5--8-6-5--------------------------------------------13--10-----13---------| 
A|-------------6-6/8--------------------------------------------------13-------| 
E|-----------------------------------------------------------------------------| 

e|-----------------------------------------------------------------------------| 
B|-----------------------11--13--11--------------------------------------------| 
G|---5-5/10---10-12-13---------------------5-5/10--------10-13-12--10-----10---| 
D|---------------------------------------------------10--------------13--10--13| 
A|-----------------------------------------------------------------------------| 
E|-----------------------------------------------------------------------------| 

e|------------------------------8---------------------------8--9-8-------------| 
B|-------------7--8------9-8---------9-8-------------9-8-----------------------| 
G|------8--7-----------------10----------10--------------10--------------------| 
D|-----------------------------------------10----------------------------------| 
A|-----------------------------------------------------------------------------| 
E|-----------------------------------------------------------------------------| 

e|---------8-------------------------------------------------------------------| 
B|--9-8----------9-8-----------------------------------------------------------| 
G|------10-----------10----------------10-/13--12------------------------------| 
D|---------------------10------------8----------------------------------------| 
A|-----------------------------------------------------------------------------| 
E|-----------------------------------------------------------------------------| 


        Chords 

        Fm              G#maj           D#maj           A#maj 
e|-----------------------------------------------------------------------------| 
B|--------------------------------------------8--------------------------------| 
G|--------1-----------------5---------------8-----------------7----------------| 
D|------3-----------------6---------------8-----------------8------------------| 
A|----3-----------------6---------------6-----------------8--------------------| 
E|--1-----------------4---------------------------------6----------------------| 

        C#maj           A#maj       x3          D#maj           A#maj 
e||---------------------------------||-----------------------------------------| 
B||---------6-----------------------||---------------8-------------------------| 
G||•-------6-----------------7-----•||-------------8------------------7--------| 
D||•-----6-----------------8-------•||-----------8------------------8----------| 
A||----4-----------------8----------||---------6------------------8------------| 
E||--------------------6------------||--------------------------6--------------| 

        Fm              G#maj           D#maj           A#maj 
e|-----------------------------------------------------------------------------| 
B|--------------------------------------------8--------------------------------| 
G|--------1-----------------5---------------8-----------------7----------------| 
D|------3-----------------6---------------8-----------------8------------------| 
A|----3-----------------6---------------6-----------------8--------------------| 
E|--1-----------------4---------------------------------6----------------------| 


*********************************** 

| /  slide up 
| \  slide down 
| h  hammer-on 
| p  pull-off 
| ~  vibrato 
| +  harmonic 
| x  Mute note 
|( ) Ghost-note 

*********************************** 
  

cifra enviadasem correções
enviado porenviada por:ang-letra
top 5 | misc computer games
top diversos
Outras músicas do artista letras do(a) Misc Computer Games
Top cifras »Top artistas »
Petaxxon Comunicação Online
Cifras.com.br - Melhor e mais completo site de cifras e tablaturas do Brasil
Mais de 1 milhão de acordes de músicas cadastradas desde 2003
As informações contidas no nosso site são colaborações de seus usuários e podem conter erros, sendo assim, não nos responsabilizamos sobre nenhuma destas.
close
menos
mais
close
Cor dos acordes:

Cor da letra:

 

save
close
close
 
redimensionar