Cifras e Tablaturas
Misc Computer Games

Misc Computer Games

Grandia - Seagull Restaurant Lilly

Cifras Cancelar Versão de Impressão

Misc Computer Games - Grandia - Seagull Restaurant Lilly

Tom:

  			

Intro: 
------ 

e-|---------7-----------7-----------7--7----7---------------------(17)--| 
B-|--7--10-------7--10-------7--10-------------10-----------------------| 
G-|---------------------------------------------------2s14----(14)------| 
D-|---------------------------------------------------------------------| 
A-|---------------------------------------------------------------------| 
E-|---------------------------------------------------------------------| 


main theme: 
----------- 

e-|---------7-----------7-----------7-----------7-------------------------------------------------| 
B-|--7--10-------7--10-------7--10-------7--10-----10-7-------7-------------------7---------------| 
G-|-----------------------------------------------------9--7-----9--9----9--7--9-----9--9---------| 
D-|-----------------------------------------------------------------------------------------------| 
A-|-----------------------------------------------------------------------------------------------| 
E-|-----------------------------------------------------------------------------------------------| 

e-|-----------------------------------------------------------------------------------------(17)--| 
B-|-----7--10-------7--10-------7--10-------7--10--7--------------7-------------------------------| 
G-|--9-----------9-----------9-----------9------------9--7--9--7------------------------(14)------| 
D-|------------------------------------------------------------------------7-8-9-8-7--------------| 
A-|-----------------------------------------------------------------------------------------------| 
E-|-----------------------------------------------------------------------------------------------| 

e-|---------7-----------7-----------7-----------7-------------------------------------------------| 
B-|--7--10-------7--10-------7--10-------7--10-----10-7-------7-------------------7---------------| 
G-|-----------------------------------------------------9--7-----9--9----9--7--9-----9--9---------| 
D-|-----------------------------------------------------------------------------------------------| 
A-|-----------------------------------------------------------------------------------------------| 
E-|-----------------------------------------------------------------------------------------------| 

e-|------------------------------------------------------------------------------------------------(17)--| 
B-|-----7--10-------7--10-------7--10-------7--10--7-----------------------------------------------------| 
G-|--9-----------9-----------9-----------9------------9--7--9--7--7----------------------------(14)------| 
D-|------------------------------------------------------------------------12-12-12-9-11-12--------------| 
A-|------------------------------------------------------------------------------------------------------| 
E-|------------------------------------------------------------------------------------------------------| 


middle 8: 
--------- 

e-|--5--5--5----7--7--7----9--9--9----9--10--9--5--7--14--12--------------------------------| 
B-|-----------------------------------------------------------------------------------------| 
G-|-----------------------------------------------------------------------------------------| 
D-|-----------------------------------------------------------------------------------------| 
A-|-----------------------------------------------------------------------------------------| 
E-|-----------------------------------------------------------------------------------------| 


e-|--7--14--12----9--9--10--9--5--7--7--5-------------------------(17)----------------------| 
B-|-----------------------------------------------------------------------------------------| 
G-|-----------------------------------------------------------(14)--------------------------| 
D-|----------------------------------------------7-8-9-8-7----------------------------------| 
A-|-----------------------------------------------------------------------------------------| 
E-|-----------------------------------------------------------------------------------------| 

e-|--5--5--5----7--7--7----9--9--9----9--10--9--5--7--14--12--------------------------------| 
B-|-----------------------------------------------------------------------------------------| 
G-|-----------------------------------------------------------------------------------------| 
D-|-----------------------------------------------------------------------------------------| 
A-|-----------------------------------------------------------------------------------------| 
E-|-----------------------------------------------------------------------------------------| 

e-|--7--14--12----9--9--10--12--12----10----------------------------(17)--------------------| 
B-|-----------------------------------------------------------------------------------------| 
G-|------------------------------------------------------------(14)-------------------------| 
D-|----------------------------------------12-12-12-9-11-12---------------------------------| 
A-|-----------------------------------------------------------------------------------------| 
E-|-----------------------------------------------------------------------------------------| 
    	
fixar
fixar inscrever-se

enviado porenviado por: deivcavalcanti
cifra enviadaCorrigida por: sem correções
logo top cifrasComente
ico música do artistaMúsicas deste artista
ico curtiuCurtiu?
ico destaqueDestaque
Petaxxon Comunicação Online

Cifras.com.br - Melhor e mais completo site de cifras e tablaturas do Brasil Mais de 1 milhão de acordes de músicas cadastradas desde 2003
As informações contidas no nosso site são colaborações de seus usuários e podem conter erros, sendo assim, não nos responsabilizamos sobre nenhuma destas.

close
menos
mais
close
Cor dos acordes:

Cor da letra:

close
Alinhar acordes a direita Alinhar acordes a esquerda Alinhar acordes em baixo Alinhar acordes no topo
close
  Mostrar todos os acordes Esconder acordes muito fáceis Esconder acordes fáceis Esconder acordes intermediários
redimensionar
glossário