Cifras e Tablaturas
Misc Computer Games

Misc Computer Games

Hotline Miami 2 - Modulogeek - Around

Cifras Cancelar Versão de Impressão
cifras

Misc Computer Games - Hotline Miami 2 - Modulogeek - Around

fixar na tela  
Exibindo: vídeo-aula ver clipes redimensionar

Tom:

  

Intro 
   1  +  2 + 3 +  
e|---------------| 
B|---------------| 
G|-------0~------| 
D|----5----------|  x8 
A|-3-------------| 
E|---------------| 

   1  +  2 + 3 + 
e|---------------| 
B|----1----------| 
G|-------2~------| 
D|---------------|  x4 
A|---------------| 
E|-1-------------| 

   1  +  2 + 3 + 
e|---------------|      |--------------| 
B|-------1~------|      |--------------| 
G|---------------|      |--------------| 
D|----3----------|  x3  |--------------| 
A|---------------|      |--------------| 
E|-3-------------|      |--------------| 

0:41 
    
   1  +  2 + 3 +  
e|---------------| 
B|---------------| 
G|-------0~------| 
D|----5----------|  x4 
A|-3-------------| 
E|---------------| 

   1  +  2 + 3 + 
e|---------------| 
B|----1----------| 
G|-------2~------| 
D|---------------|  x2 
A|---------------| 
E|-1-------------| 

   1  +  2 + 3 +   1  +  2 +  3 + 
e|---------------|---------------| 
B|-------1~------|-------1-------| 
G|---------------|------------0--| 
D|----3----------|----3----------| 
A|---------------|---------------| 
E|-3-------------|-3-------------| 

   1  +  2 + 3 +   1  +  2  + 3 +   1  +  2 + 3 + 
e|---------------|----------------|-0~------------|------------| 
B|-------1~------|-------1----3---|-------1~------|------------| 
G|---------------|----------------|----2----------|------------| 
D|----2----------|----2-----------|---------------|------------| 
A|-0-------------|-0--------------|---------------|------------| 
E|---------------|------------3---|-2~------------|------------| 

   1  +  2 + 3 +   1  +  2 +  3 + 
e|----0----------|----0-----------| 
B|-------1~------|-------1--------| 
G|---------------|------------2---| 
D|---------------|----------------| 
A|---------------|----------------| 
E|-1-------------|-3--------------| 

1:17 (two guitars from here on) 
   1  +  2 + 3 +   1  +  2 + 3 +   1  +  2 + 3 +   1  +  2 + 3 + 
e|-7~------------|---------------|-7~------------|---------------| 
B|-------------8-|---------------|-------------8-|---------------| 
G|---------------|-7~------------|---------------|-7~------------| 
D|---------------|---------------|---------------|---------------| 
A|---------------|---------------|---------------|---------------| 
E|---------------|---------------|---------------|---------------| 

e|---------------|---------------|---------------|---------------| 
B|-------0~------|-------0~------|-------0~------|-------0~------| 
G|----5----------|----5----------|----5----------|----5----------| 
D|---------------|---------------|---------------|---------------| 
A|---------------|---------------|---------------|---------------| 
E|---------------|---------------|---------------|---------------| 

                                                                          

   1  +  2 + 3 +   1  +  2 + 3 +   1  +  2 + 3 +   1  +  2 + 3 + 
e|-7~------------|---------------|-7~------------|---------------| 
B|-------------8-|---------------|-------------8-|---------------| 
G|---------------|-9~------------|---------------|-9~------------| 
D|---------------|---------------|---------------|---------------| 
A|---------------|---------------|---------------|---------------| 
E|---------------|---------------|---------------|---------------| 

e|---------------|---------------|---------------|---------------| 
B|----1----------|----1----------|----1----------|----1----------| 
G|-------2~------|-------2~------|-------2~------|-------2~------| 
D|---------------|---------------|---------------|---------------| 
A|---------------|---------------|---------------|---------------| 
E|---------------|---------------|---------------|---------------| 

                                                                          

   1  +  2 + 3 +   1  +  2 + 3 +   1  +  2 + 3 +   1  +  2  + 3 + 
e|-5~------------|---------------|-5~------------|----------------| 
B|-------------5-|-3~------------|-------------5-|-3~-------------| 
G|---------------|---------------|---------------|-------5----0---| 
D|---------------|---------------|---------------|----------------| 
A|---------------|---------------|---------------|----------------| 
E|---------------|---------------|---------------|----------------| 

e|---------------|---------------|---------------|----------------| 
B|---------------|---------------|---------------|----------------| 
G|-------5~------|-------5~------|-------5~------|-------5~-------| 
D|----3----------|----3----------|----3----------|----3-----------| 
A|---------------|---------------|---------------|----------------| 
E|---------------|---------------|---------------|----------------| 

                                                                          

1:48 
   1  +  2 + 3 +   1  +  2 + 3 +   1  +  2 + 3 +   1  +  2 + 3 + 
e|-7~------------|---------------|-7~------------|---------------| 
B|-------------8-|---------------|-------------8-|---------------| 
G|---------------|-7~------------|---------------|-7~------------| 
D|---------------|---------------|---------------|---------------| 
A|---------------|---------------|---------------|---------------| 
E|---------------|---------------|---------------|---------------| 

e|---------------|---------------|---------------|---------------| 
B|-------0~------|-------0~------|-------0~------|-------0~------| 
G|----5----------|----5----------|----5----------|----5----------| 
D|---------------|---------------|---------------|---------------| 
A|---------------|---------------|---------------|---------------| 
E|---------------|---------------|---------------|---------------| 

                                                                          

   1  +  2 + 3 +   1  +  2 + 3 +   1  +  2 + 3 +   1  +  2  + 3 + 
e|-7~------------|---------------|-5~------------|----------------| 
B|-------------8-|---------------|-------------5-|-3~-------------| 
G|---------------|-9~------------|---------------|----------------| 
D|---------------|---------------|---------------|----------------| 
A|---------------|---------------|---------------|----------------| 
E|---------------|---------------|---------------|----------------| 

e|---------------|---------------|---------------|----------------| 
B|-------1~------|-------1~------|---------------|----------------| 
G|----2----------|----2----------|-------5~------|-------5----0---| 
D|---------------|---------------|----3----------|----3-----------| 
A|---------------|---------------|---------------|----------------| 
E|---------------|---------------|---------------|----------------| 

                                                                          

   1  +  2 + 3 +   1  +  2 + 3 +   1   +   2 + 3 +  
e|---------------|----5--8---10--|-12------8~------|--------------| 
B|----5--8~----5-|-8-------------|-----10----------|--------------| 
G|---------------|---------------|-----------------|--------------| 
D|---------------|---------------|-----------------|--------------| 
A|---------------|---------------|-----------------|--------------| 
E|---------------|---------------|-----------------|--------------| 

e|---------------|---------------|-----------------|--------------| 
B|---------------|---------------|-----------------|--------------| 
G|-4----5~-------|-------5---7---|-9-------5~------|--------------| 
D|---------------|---------------|-----7-----------|--------------| 
A|---------------|---------------|-----------------|--------------| 
E|---------------|---------------|-----------------|--------------| 

                                                                          

2:19 
   1   +   2 + 3 +   1   +  2 + 3 +    1  +  2 + 3 +   1  +  2 + 3 +  
e|-12------8~------|-10-----7-----10-|-7~------------|-------------/10-| 
B|-----10----------|-----8-----------|-------------8-|-----------------| 
G|-----------------|-----------------|---------------|-9~--------------| 
D|-----------------|-----------------|---------------|-----------------| 
A|-----------------|-----------------|---------------|-----------------| 
E|-----------------|-----------------|---------------|-----------------| 

e|-----------------|-----------------|---------------|-----------------| 
B|-----------------|-----------------|-------0~------|-------0~--------| 
G|-----------------|-----------------|----5----------|----5------------| 
D|-----------------|-----------------|---------------|-----------------| 
A|-----------------|-----------------|---------------|-----------------| 
E|-1~--------------|-3~--------------|---------------|-----------------| 

                                                                          

   1  +  2 + 3 +   1  +  2 + 3 +     1  +  2 + 3 +   1  +  2 + 3 +  
e|-7~------------|-------------/10-|-7~------------|-------------/10-| 
B|-------------8-|-----------------|-------------8-|-----------------| 
G|---------------|-9~--------------|---------------|-9~--------------| 
D|---------------|-----------------|---------------|-----------------| 
A|---------------|-----------------|---------------|-----------------| 
E|---------------|-----------------|---------------|-----------------| 

e|---------------|-----------------|---------------|-----------------| 
B|-------0~------|-------0~--------|-------0~------|-------0~--------| 
G|----5----------|----5------------|----5----------|----5------------| 
D|---------------|-----------------|---------------|-----------------| 
A|---------------|-----------------|---------------|-----------------| 
E|---------------|-----------------|---------------|-----------------| 

                                                                          

   1  +  2 + 3 +   1   +  2 + 3 +  
e|-7~------------|-10~------------| 
B|-------------8-|----------------| 
G|---------------|----------------| 
D|---------------|----------------| 
A|---------------|----------------| 
E|---------------|----------------| 

e|---------------|----------------| 
B|-------0~------|--------0~------| 
G|----5----------|-----5----------| 
D|---------------|----------------| 
A|---------------|----------------| 
E|---------------|----------------| 



************************************ 

| /  Slide up 
| ~  Vibrato 

************************************ 
  

top 5 | misc computer games
top diversos
Outras músicas do artista letras do(a) Misc Computer Games
Top cifras »Top artistas »
Petaxxon Comunicação Online
Cifras.com.br - Melhor e mais completo site de cifras e tablaturas do Brasil
Mais de 1 milhão de acordes de músicas cadastradas desde 2003
As informações contidas no nosso site são colaborações de seus usuários e podem conter erros, sendo assim, não nos responsabilizamos sobre nenhuma destas.
close
menos
mais
close
Cor dos acordes:

Cor da letra:

 

save
close
close
 
redimensionar