Cifras e Tablaturas
Misc Computer Games

Misc Computer Games

Kof Xiv Departure From South Town

Cifras Cancelar Versão de Impressão
cifras

Misc Computer Games - Kof Xiv Departure From South Town

fixar na tela  
Exibindo: vídeo-aula ver clipes redimensionar
  
Intro 
 You can play this part with a slide, it sounds really great, but it´s hard to keep the slide, and then take  
 it off between different sections.   
   Let them ring 
e|---15--15--15~\---|-----------------| 
B|/15--15--15---\---|-/12~-\----------| 
G|------------------|----12\---9/12---| 
D|------------------|----------9/12---| 
A|------------------|-----------------| 
E|------------------|-----------------| 

Section A 
e|---------------------------|---------------------------|---------------------------|----------------| 
B|---------------------------|---------------------------|---------------------------|----------------| 
G|3-2-0-/5~------------------|3-2-0-/5~------------------|3-2-0-/5~------------------|3-2-0-/5~--3-5~~| 
D|3-2-0-/5~----3-5--8-8--5\3-|3-2-0-/5~----3-5--8-8--5\3-|3-2-0-/5~----3-5--8-8--5-3-|3-2-0-/5~--3-5~~| 
A|-----------5-3-5--8-8--5\3-|-----------5-3-5--8-8--5\3-|-----------5-3-5--8-8--5-3-|----------------| 
E|-----------3---------------|-----------3---------------|-----------3---------------|----------------| 

e|---------------------------|---------------------------|---------------------------|---------------------| 
B|---------------------------|---------------------------|---------------------------|---------------------| 
G|3-2-0-/5~------------------|3-2-0-/5~------------------|3-2-0-/5~------------------|5-3-1--1-1-1-1h3-----| 
D|3-2-0-/5~----3-5--8-8--5\3-|3-2-0-/5~----3-5--8-8--5\3-|3-2-0-/5~----3-5--8-8--5-3-|5-3-1--1-1-1-1h3-----| 
A|-----------5-3-5--8-8--5\3-|-----------5-3-5--8-8--5\3-|-----------5-3-5--8-8--5-3-|------------------3/5| 
E|-----------3---------------|-----------3---------------|-----------3---------------|------------------1/3| 

Section B 
                                 all this in hr 
e|-----------------------------------------------------------------| 
B|11/12-------hr-----------hr--------------------------------------| 
G|---------10-12b13-----10-12b13-----------------------------------| 
D|------12-----------12----------|12-11-10-10\8~|-8--8-8-10-8------| 
A|------------------------------------------------8--8-8-10-8--3/5-| 
E|-------------------------------------------------------------1/3-| 

e|--------------------------------------------------------------------| 
B|11/12--------------------hr--------11/15\11b12~---------------------| 
G|---------10-12b13-----10-12b13--10----------------------------------| 
D|------12-----------12------------------------------8--8-8-10-8------| 
A|---------------------------------------------------8--8-8-10-8------| 
E|--------------------------------------------------------------------| 

The bends in this section are really short (in time) 
e|----------------------------------|------------------------------------| 
B|---------------------------11b12--|------11--11----11/15--11-hr--------| 
G|------10--10--10-12b13-10---------|10/12---12---10-----------12~-------| 
D|10/12---12--12--------------------|------------------------------------| 
A|----------------------------------|-------------------------------3/5--| 
E|----------------------------------|-------------------------------1/3--| 

e|------------------------------------------------------------| 
B|11/12-------hr-----------hr---------------------------------| 
G|---------10-12b13-----10-12b13------------------------------| 
D|------12-----------12----------12-11-10-10\8~--8--8-8-10-8--| 
A|-----------------------------------------------8--8-8-10-8--| 
E|------------------------------------------------------------| 

Section C 
e|----------------|----------------|---15---15----/18-15~-|10/15\10-------------------------| 
B|5-6--6/8~-------|5-6--8/11~------|----------------------|---------15\11-------------------| 
G|5-7--7/9~-------|5-7--9/12~------|/12--/12--12\---------|---------------12---10h12/15\12~~| 
D|----------------|----------------|----------------------|-----------------12--------------| 
A|----------------|----------------|----------------------|---------------------------------| 
E|----------------|----------------|----------------------|---------------------------------| 

e|----------------|----------------|----------------15\10-10-10--|--------------------------| 
B|5-6--6/8~-------|5-6--8/11~------|---15~-15~------------10-10--|--------------------------| 
G|5-7--7/9~-------|5-7--9/12~------|/14~-14~----14\--------------|--------------------------| 
D|----------------|----------------|-----------------------------|-10-10-10-----------------| 
A|----------------|----------------|-----------------------------|-10-10-10-----------------| 
E|----------------|----------------|-----------------------------|----------10-8-6-8--1--1-3| 

Section D 
                                        |Palm mute| 
e|17b18--17b18-17p15h17-17~--17-18-15~~|-----------------------------------------------| 
B|-------------------------------------|-------------hr------------hr------------------| 
G|-------------------------------------|------3----|-5b6--3h5p3----5b6---3h5p3h5p3-----| 
D|-------------------------------------|--3-5---5--|------------5-------------------5--| 
A|-------------------------------------||5---------------------------------------------| 
E|-------------------------------------|----------------------------------------------| 

e|17b18--17b18-17p15h17-17~--17-18-15~~| 
B|-------------------------------------| 
G|-------------------------------------| 
D|-------------------------------------| 
A|-------------------------------------| 
E|-------------------------------------| 

e|--------13------15------13------15------13------15------13------15------15b16~~--| 
B|13h14h15---15p14---14h15---15p14---14h15---15p14---14h15---15p14---14h15---------| 
G|---------------------------------------------------------------------------------| 
D|---------------------------------------------------------------------------------| 
A|---------------------------------------------------------------------------------| 
E|---------------------------------------------------------------------------------| 

e|17b18--17b18-17p15h17-17~--17-18-15~~| 
B|-------------------------------------| 
G|-------------------------------------| 
D|-------------------------------------| 
A|-------------------------------------| 
E|-------------------------------------| 

In this part you´ll have to play the G note in tremolo, just listen to the song so that you understand  
where to land the notes. Also as a tip, the space between the notes that you land get shorter. 
e|-------------------------------------------------------------------| 
B|------------------------------------------------------3------------| 
G|0-0-12-0-0-11-0-0-10-0-0-9-0-0-8-0-0-7-0-6-0-5--------5b7-5-3/12---| 
D|--------------------------------------------------3-5--------------| 
A|------------------------------------------------5------------------| 
E|-------------------------------------------------------------------| 

e|17b18--17b18-17p15h17-17~--17-18-15~~|-17b18--15-13-15~--17b18--15-13-15~----------| 
B|-------------------------------------|-x-----------------x-------------------------| 
G|-------------------------------------|-x-----------------x-------------------------| 
D|-------------------------------------|---------------------------------------------| 
A|-------------------------------------|---------------------------------------------| 
E|-------------------------------------|---------------------------------------------| 
 
  

cifra enviadasem correções
enviado porenviada por:LINEKERS
top 5 | misc computer games
top diversos
Outras músicas do artista letras do(a) Misc Computer Games
Top cifras »Top artistas »
Petaxxon Comunicação Online
Cifras.com.br - Melhor e mais completo site de cifras e tablaturas do Brasil
Mais de 1 milhão de acordes de músicas cadastradas desde 2003
As informações contidas no nosso site são colaborações de seus usuários e podem conter erros, sendo assim, não nos responsabilizamos sobre nenhuma destas.
close
menos
mais
close
Cor dos acordes:

Cor da letra:

 

save
close
close
 
redimensionar