Cifras e Tablaturas
Misc Computer Games

Misc Computer Games

Super Mario Odyssey - Steam Gardens

Cifras Cancelar Versão de Impressão

Misc Computer Games - Super Mario Odyssey - Steam Gardens

Tom: D

  			
   

Intro 
                 D6 half bar           Downstrokes   G             +              +   D   +       + 
E|-------------|----------------7----|-7-----7-----|------3--------3--------|-3---3-------2-------2--------| 
B|-------------|-----------7---------|-7-----7-----|------0--------0--------|-0---0-------3-------3--------| 
G|-------------|------7--------------|-7-----7-----|------------------------|------------------------------| 
D|-------------|-7-------------------|-7-----7-----|------0------------0----|---------0---------------0----| 
A|-------0-----|---------------------|-------------|------------------------|-----------------0------------| 
E|-0-----------|---------------------|-------------|-3---------3------------|-3----------------------------| 

   G             +              +  D5/A +       +         G              + 
E|------3--------3--------|-3---3-------5-------5--------|------3--------3--------| 
B|------0--------0--------|-0---0-------3-------3--------|------0--------0--------| 
G|------------------------|------------------------------|------------------------| 
D|------0------------0----|---------0---------------0----|------0------------0----| 
A|------------------------|------------------------------|------------------------| 
E|-3---------3------------|-3---------------5------------|-3---------3------------| 

       +   D   +       +          Am7      +       +          D        +       + 
E|-3---3-------2-------2--------|-0-------------------------|-2-------------------------| 
B|-0---0-------3-------3--------|-1----------------1--------|-3----------------3--------| 
G|------------------------------|----------0----------------|----------2----------------| 
D|---------0---------------0----|------2---------------2----|------0---------------0----| 
A|-----------------0------------|-0------------0------------|-0------------0------------| 
E|-3----------------------------|---------------------------|---------------------------| 

Verse (2x) 
   G             +       +                   +       +                   +       + 
E|------3--------3-----------|---------------------------|------3--------3-----------| 
B|---------------------------|-0----0--------1-------0---|---------------------------| 
G|-----------------------0---|-------------------2-------|-----------------------0---| 
D|------0--------0---2-------|------0------------0-------|------0--------0---2-------| 
A|---------------------------|---------------------------|---------------------------| 
E|-3---------3---------------|-3---------3---------------|-3---------3---------------| 

                 +       +                   +       +                        +       + 
E|---------------0-----------|------3--------3-----------|--------------------------------| 
B|-0----0------------3---0---|---------------------------|-----------0--------------------| 
G|---------------------------|-----------------------0---|-3-/-4--------------2---0-------| 
D|------0------------0-------|------0--------0---2-------|-----------0------------0---2---| 
A|---------------------------|---------------------------|--------------------------------| 
E|-3---------3---------------|-3---------3---------------|-3--------------3---------------| 

   Dsus4         +       +     G             + 
E|---------------------------|------3--------3--------| 
B|---------------------------|------------------------| 
G|---------------0-----------|------------------------| 
D|------0------------0---2---|------0------------0----| 
A|-0---------0---------------|------------------------| 
E|---------------------------|-3---------3------------| 
                                                                                  
Chorus                                                                                  
                 +       +     C             +       +     D                                   +       + 
E|---------------------------|-0----0--------0---0-------|---------------------|---------------------------| 
B|---------------0---1---3---|-----------------------3---|---------------------|-3----3--------1---3---0---| 
G|---------------------------|------0------------0-------|------2---------2----|------2------------2-------| 
D|------0------------0-------|---------------------------|---------------------|---------------------------| 
A|---------------------------|-3---------3---------------|-0---------0---------|-0---------0---------------| 
E|-3---------3---------------|---------------------------|---------------------|---------------------------| 

   G             +       +     C             +       +     D                                   +       + 
E|---------------------------|-0----0--------0---0-------|---------------------|-------------------0---2---| 
B|---------------0---1---3---|-----------------------3---|---------------------|-3----3--------3-----------| 
G|---------------------------|------0------------0-------|------2---------2----|------2------------2-------| 
D|------0------------0-------|---------------------------|---------------------|---------------------------| 
A|---------------------------|-3---------3---------------|-0---------0---------|-0---------0---------------| 
E|-3---------3---------------|---------------------------|---------------------|---------------------------| 

                 +       +     G       D+       G6     D              +       +    G       D5+      G6     
E|-----------------------2---|-3--------2--------0----|-----------------------2---|-3--------5--------7----| 
B|---------------0---3-------|-0--------3--------0----|---------------0---3-------|-0--------3--------0----| 
G|------2------------2-------|------------------------|------2------------2-------|------------------------| 
D|---------------------------|------0------------0----|---------------------------|------0------------0----| 
A|-0---------0---------------|--------------0---------|-0---------0---------------|------------------------| 
E|---------------------------|-3----------------------|---------------------------|-3------------5---------| 

   D             +       +     G       D+        G6     D             +       + 
E|-----------------------2---|-3--------2--------0----|---------------0-------0---|---------------------| 
B|---------------0---3-------|-0--------3--------0----|-------------------3-------|-3-------------------| 
G|-------------------2-------|------------------------|------2------------2-------|---------------------| 
D|------0--------------------|------0------------0----|---------------------------|------0---------0----| 
A|---------------------------|--------------0---------|-0---------0---------------|-0---------0---------| 
E|-7---------7---------------|-3----------------------|---------------------------|---------------------| 

VerseReprise 
            +       +       +     G             +       +                   +       + 
E|-2--------2-------------------|---------------------------|------3--------3-----------| 
B|------------------------------|-0----0--------1-------0---|---------------------------| 
G|--------------------------0---|-------------------2-------|-----------------------0---| 
D|------0-----------0---2-------|------0------------0-------|------0--------0---2-------| 
A|-0------------0---------------|---------------------------|---------------------------| 
E|------------------------------|-3---------3---------------|-3---------3---------------| 

                 +       +                   +       +                   +       + 
E|---------------0-----------|------3--------3-----------|---------------------------| 
B|-0----0------------3---0---|---------------------------|-0----0--------------------| 
G|---------------------------|-----------------------0---|---------------2---0-------| 
D|------0------------0-------|------0--------0---2-------|------0------------0---2---| 
A|---------------------------|---------------------------|---------------------------| 
E|-3---------3---------------|-3---------3---------------|-3---------3---------------| 

   Dsus4         +       +     G             +              +       + 
E|---------------------------|------3--------3--------|-3---3---0---3-------------| 
B|---------------------------|------------------------|---------------------------| 
G|---------------0-----------|------------------------|---------------------------| 
D|------0------------0---2---|------0------------0----|---------0------------0----| 
A|-0---------0---------------|------------------------|---------------------------| 
E|---------------------------|-3---------3------------|-3---------------3---------| 

Outro  (repeat and fade out) 
   G             +             +     D+      +        G            +             +      +D5/A   +           
E|------3--------3-------|-3---3------2------2------|------3-------3-------|-3---3------5-------5-------| 
B|------0--------0-------|-0---0------3------3------|------0-------0-------|-0---0------3-------3-------| 
G|-----------------------|--------------------------|----------------------|----------------------------| 
D|------0------------0---|--------0--------------0--|------0-----------0---|--------0---------------0---| 
A|-----------------------|---------------0----------|----------------------|----------------------------| 
E|-3---------3-----------|-3------------------------|-3--------3-----------|-3--------------5-----------| 

************************************                                                      

| /    Slide up 

************************************ 
    	
fixar
fixar inscrever-se

enviado porenviado por: victborges
cifra enviadaCorrigida por: sem correções
logo top cifrasComente
ico música do artistaMúsicas deste artista
ico curtiuCurtiu?
ico destaqueDestaque
Petaxxon Comunicação Online

Cifras.com.br - Melhor e mais completo site de cifras e tablaturas do Brasil Mais de 1 milhão de acordes de músicas cadastradas desde 2003
As informações contidas no nosso site são colaborações de seus usuários e podem conter erros, sendo assim, não nos responsabilizamos sobre nenhuma destas.

close
menos
mais
close
Cor dos acordes:

Cor da letra:

close
Alinhar acordes a direita Alinhar acordes a esquerda Alinhar acordes em baixo Alinhar acordes no topo
close
  Mostrar todos os acordes Esconder acordes muito fáceis Esconder acordes fáceis Esconder acordes intermediários
redimensionar
glossário