Cifras e Tablaturas
Misc Computer Games

Misc Computer Games

Team Fortress 2 - Mercenary Park

Cifras Cancelar Versão de Impressão
cifras

Misc Computer Games - Team Fortress 2 - Mercenary Park

fixar na tela  
Exibindo: vídeo-aula ver clipes redimensionar

Tom:

  
INTRO 0:00 
E|-------------------|-----------------| 
B|-------------------|-----------------| 
G|-------------------|-----------------| 
D|-2-2-2-1-1-1-0-0-0-|-----------------| 
A|-------------------|-2-2-2-1h2-2-1---| 
E|-------------------|---------------3-| 

VERSE 0:03 (Repeat the verse 3X before the Chorus) 
E|-------------------------------------| 
B|-------------------------------------| 
G|-------------------------------------| 
D|-------------------------------------| 
A|-------------------3-3-3-5-5-6-6-----| 
E|-0-0-0-3-3-3-5-5-5-------------------| 

E|-------------------------------------| 
B|-------------------------------------| 
G|-------------------------------------| 
D|-------------------------------------| 
A|--------------------6-6-6-5-5-3-3----| 
E|-0-0-0-3-3-3-5-5-5-------------------| 

E|-------------------------------------| 
B|-------------------------------------| 
G|-------------------------------------| 
D|-------------------------------------| 
A|--------------------3-3-3-5-5-6-6----| 
E|-0-0-0-3-3-3-5-5-5-------------------| 

E|-------------------------------------| 
B|-------------------------------------| 
G|-------------------------------------| 
D|-------------------------------------| 
A|-------------6-6-6-5-5-5-----3-3-----| 
E|-0-0-0-3-3-3-------------5-5---------| 

Chorus 0:44 
E|-------------------------------------| 
B|-------------------------------------| 
G|-------------------------------------| 
D|---2-2-2-1-1-1-0-0-0-----------------| 
A|---------------------2-2-2-1-1-0-0---| 
E|-------------------------------------| 

E|-------------------------------------| 
B|-------------------------------------| 
G|-------------------------------------| 
D|---2-2-2-1-1-1-0-0-0-----------------| 
A|---------------------2-2-2-1-1-0-0---| 
E|-------------------------------------| 
(From 0:52 to 1:20 the guitar doesn't play anything) 

INTRO 1:20 
E|-------------------|-----------------| 
B|-------------------|-----------------| 
G|-------------------|-----------------| 
D|-2-2-2-1-1-1-0-0-0-|-----------------| 
A|-------------------|-2-2-2-1h2-2-1---| 
E|-------------------|---------------3-| 

verse 1:24 
E|-------------------------------------| 
B|-------------------------------------| 
G|-------------------------------------| 
D|-------------------------------------| 
A|-------------------3-3-3-5-5-6-6-----| 
E|-0-0-0-3-3-3-5-5-5-------------------| 

E|-------------------------------------| 
B|-------------------------------------| 
G|-------------------------------------| 
D|-------------------------------------| 
A|-------------------6-6-6-5-5-3-3-----| 
E|-0-0-0-3-3-3-5-5-5-------------------| 

ENDING 1:34 
E|-------------------|-----------------| 
B|-------------------|-----------------| 
G|-------------------|-----------------| 
D|-2-2-2-1-1-1-0-0-0-|-----------------| 
A|-------------------|-2-2-2-1h2-2-1---| 
E|-------------------|---------------3-| 

*********************************** 

| h   Hammer-on 

***********************************  
  

top 5 | misc computer games
top diversos
Outras músicas do artista letras do(a) Misc Computer Games
Top cifras »Top artistas »
Petaxxon Comunicação Online
Cifras.com.br - Melhor e mais completo site de cifras e tablaturas do Brasil
Mais de 1 milhão de acordes de músicas cadastradas desde 2003
As informações contidas no nosso site são colaborações de seus usuários e podem conter erros, sendo assim, não nos responsabilizamos sobre nenhuma destas.
close
menos
mais
close
Cor dos acordes:

Cor da letra:

 

save
close
close
 
redimensionar