Cifras e Tablaturas
Misc Praise Songs

Misc Praise Songs

In Christ Alone

Cifras Cancelar Versão de Impressão
cifras

Misc Praise Songs - In Christ Alone

fixar na tela  
Exibindo: vídeo-aula ver clipes redimensionar

Tom:

  
e|-----------------------------------------------------------------------------------------------------------| 
B|------------------------0----------------3-----0-----------0--------3-----------0-----------------3-----0--| 
G|---------------0--0--------------0--2-------------------------2--------0--0--------------0--2--------------| 
D|---------0--2--------0-----0--2--------0----0-----2--0--2--------0-----------0-----0--2--------0-----0-----| 
A|------------3-----------------3-------------------------3-----------------------------3--------------------| 
E|------------------3-----------------2----------3--------------2-----------3-----------------2-----------3--| 

e|-------------------------------------------0--------0--------------------3--2--0--------0----------------| 
B|----------0--------3-----------0-----0--3--3-----1-----3--0--------3-----3-----3-----1-----3--0--------3-| 
G|-2--0--------2--------0--0--------0--0--------0--------0-----2--------0-----------0--------0-----2-------| 
D|-------2--------0-----------0-----------------------------------0-----------------------------------0----| 
A|-------3-----------------------------2-----3-----------------------------2-----3-------------------------| 
E|-------------2-----------3-----------------------------3-----2-----------------------------0-----2-------| 

e|-------------------------------------------------------------------------3--| 
B|----3-----------------0-----------------3-----0-----------0--------3-----0--| 
G|-------------0--0--------------0--2--------------2--0--------2--------0--0--| 
D|-0-----0--2--------0-----0--2--------0-----0-----------2--------0--------0--| 
A|----------3-----------------3--------------------------3-----------------2--| 
E|----------------3-----------------2-----------3--------------2-----------3--| 
  

top 5 | misc praise songs
top
Outras músicas do artista letras do(a) Misc Praise Songs
Top cifras »Top artistas »
Petaxxon Comunicação Online
Cifras.com.br - Melhor e mais completo site de cifras e tablaturas do Brasil
Mais de 1 milhão de acordes de músicas cadastradas desde 2003
As informações contidas no nosso site são colaborações de seus usuários e podem conter erros, sendo assim, não nos responsabilizamos sobre nenhuma destas.
close
menos
mais
close
Cor dos acordes:

Cor da letra:

 

save
close
close
 
redimensionar