Cifras e Tablaturas
Misc Praise Songs

Misc Praise Songs

Joseph M Scriven - What A Friend We Have In Jesus

Cifras Cancelar Versão de Impressão
cifras

Misc Praise Songs - Joseph M Scriven - What A Friend We Have In Jesus

fixar na tela  
Exibindo: vídeo-aula ver clipes redimensionar
  
Verse 
           D                   G         G       D                 A 
e|---------2-2-2---------------3-3-3-----3-3-3---2-2-2-------------0-0-0---0-| 
B|---------3-3-3---------------0-0-0-----0-0-0---3-3-3-------------2-2-2---2-| 
G|---------2-2---2-4-2---------0-0-0-----0-0-0---2-2-----2---2-----2-2-2h4-2-| 
D|-------0-------------4-2-0---0-0-0-----0-0-0-0-------0---4---4-2-2-2-2---2-| 
A|-0-2-4---------------------2-2-2-2-0h2-2-2-2-------------------------------| 
E|-----------------------------3-3-3-----3-3-3-------------------------------| 


           D                   G         G       D             D 
e|---------2-2-2---------------3-3-3-----3-3-3---2-2-2---------2-2-2---------| 
B|---------3-3-3---------------0-0-0-----0-0-0---3-3-3---------3-3-3---------| 
G|---------2-2---2-4-2---------0-0-0-----0-0-0---2-2-----------2-2-----------| 
D|-------0-------------4-2-0---0-0-0-----0-0-0-0-------2/4-2-0---------------| 
A|-0-2-4---------------------2-2-2-2-0h2-2-2-2-------------------------------| 
E|-----------------------------3-3-3-----3-3-3-------------------------------| 


           B7        D             D     B7 
e|---------0-0-0-0---2-2-1-2-------2-2-2-0-----------------------------------| 
B|---------2-2-1-2---3-3-2-3-1/3---3-3-3-2-2-2-------------------------------| 
G|---------0-0-0-0---2-2-1-2-2/4-4-2-2-2-0-0-0-------------------------------| 
D|---0-----2-2-1-2-0---------------------2-2-2-------------------------------| 
A|-4\2-2-0-------------------------------------------------------------------| 
E|---------------------------------------------------------------------------| 


             D                   G         G       D                 D 
e|-----------2-2-2---------------3-3-3-----3-3-3---2-2-2-------------2-2-2---------| 
B|-----------3-3-3---------------0-0-0-----0-0-0---3-3-3-------------3-3-3---------| 
G|-----------2-2---2-4-2---------0-0-0-----0-0-0---2-2---------------2-2-----------| 
D|---------0-------------4-2-0---0-0-0-----0-0-0-0-------0-4-2/4-2-0---------------| 
A|-0-2-3-4---------------------2-2-2-2-0h2-2-2-2-----------------------------------| 
E|-------------------------------3-3-3-----3-3-3-----------------------------------| 
 
  

cifra enviadasem correções
enviado porenviada por:IronPower4Ever
top 5 | misc praise songs
top
Outras músicas do artista letras do(a) Misc Praise Songs
Top cifras »Top artistas »
Petaxxon Comunicação Online
Cifras.com.br - Melhor e mais completo site de cifras e tablaturas do Brasil
Mais de 1 milhão de acordes de músicas cadastradas desde 2003
As informações contidas no nosso site são colaborações de seus usuários e podem conter erros, sendo assim, não nos responsabilizamos sobre nenhuma destas.
close
menos
mais
close
Cor dos acordes:

Cor da letra:

 

save
close
close
 
redimensionar