Cifras e Tablaturas
Misc Praise Songs

Misc Praise Songs

Neocolours - Tuloy Pa Rin

Cifras Cancelar Versão de Impressão
cifras

Misc Praise Songs - Neocolours - Tuloy Pa Rin

fixar na tela  
Exibindo: vídeo-aula ver clipes redimensionar

Tom:

  
Capo 1  

Intro: 
e---------0------------------4----------------0----------------- 
B---------0----0-------------0----0---------3-----3------------- 
G------6-----6---6--------6-----6---6-----2-----2---2----------- 
D----7-----------------7----------------0----------------------- 
A--0----------------0------------------------------------------- 
E--------------------------------------------------------------- 


e-------------0+----------------------------------------------- 
B----------5-------------------------------------------------- 
G--------4---------------------------------------------------- 
D------6------------------------------------------------------ 
A----7-------------------------------------------------------- 
E--0---------------------------------------------------------- 

Verse: 

e------------------------------------------------------------ 
B-----0--2------0--2--3--0-----0--2--0--0-------------------- 
G------------2-------------2----------------2------------1------- 
D--2-------2-----------------------------------0-------4--------- 
A-----0---------0------------------------------------2----------- 
E------------------------------2----------2--------0------------- 

e---------------------------------0H2--------0------------------- 
B--0--2------------2h3-2-----2----------------------------------- 
G-------------2----0------0----0----------------4s6-4--2--------- 
D-------2--2----2------------------------------------------------ 
A--0---------------0--------------------------------------------- 
E---------------------------------2-----2----0------------------- 

Muntik na 
Nasanay ako sa 'king pag-iisa 
Kaya nang iwanan ang 
Bakas ng kahapon ko.. 

e------------------------------------------------------------ 
B------------------------------------------------------------ 
G-------2----2-------2--3-2--0------0------------------------ 
D-----4---4-----4-----------------0---0---------------------- 
A------------------------------------------------------------ 
E--2---------2-------4----------4---------------------------- 

e--0---------------------------------------------------------- 
B---------------------------0--------------------------------- 
G-----4s6--4--------------0--------------------------------------- 
D--------------2s4--4---4----------------------------------------- 
A--0------------------5---------------------------------------- 
E----------0-------------------------------------------------- 

e------------------------------------------------------------------- 
B-----------------------------------------------------------------5- 
G-------2----2-------2--3-2--0---------------6-6-4--4s6-4-4--------- 
D-----4---4-----4------------------2s4-4--------------------6---6--- 
A--------------------------------------5--5-------------------7----- 
E--2---------2-------4----------4-------------------0--------------- 

Chorus: 

e-----0H2-0-0---0H2-0-----0--0-------0-------------2----------- 
B-----------------------------------------------------5--5----- 
G--2----------2-----------------------------2------------------ 
D-----------------------------------------2-------------------- 
A---------------0---------0------------------------------------ 
E----------------------X----------X-----4-----X--4-------X----- 

e----------------------------------0H2-0-0-----0H2--0---0----0----0--- 
B-2--2H3-0--0-----2-------------------------2------------------------- 
G--------X--------------4--2------------------------------------------ 
D----------------------------------------------0-----------0------0--- 
A-------------------------------------------------------------------- 
E----2---------2-----X-----0--X--0-------X------------X--------X----- 


e--------------------------------------------0---12+------------- 
B-----2--------2H3-2--0----------------6-----0---12+------------- 
G------------------------------7-----7---7---1---12+------------- 
D------------------------------7-----7-------4------------------ 
A--4-----X--4--------------------------------2------------------- 
E-------------------------5s7-----x--7-------0------------------- 

YUNG verse 2, SAME LANG DIN. NILAGYAN KO LANG NG TAP. 

TAS ETO YUNG PART NA 1:40-1:41, YUNG MEDYO FUNKY YUNG TUNOG. 

e------------------------------------------------------------ 
B------------------------------------------------------------ 
G------2-----------2------2---------------------------------- 
D----4--------4---------4-----4------------------------------ 
A------------------------------------------------------------ 
E--2------X-----2--2--------X----2--------------------------- 

REPEAT Chorus. 
TAS YUNG CAPO LILIPAT SA 2ND.  
  

top 5 | misc praise songs
top
Outras músicas do artista letras do(a) Misc Praise Songs
Top cifras »Top artistas »
Petaxxon Comunicação Online
Cifras.com.br - Melhor e mais completo site de cifras e tablaturas do Brasil
Mais de 1 milhão de acordes de músicas cadastradas desde 2003
As informações contidas no nosso site são colaborações de seus usuários e podem conter erros, sendo assim, não nos responsabilizamos sobre nenhuma destas.
close
menos
mais
close
Cor dos acordes:

Cor da letra:

 

save
close
close
 
redimensionar