Cifras e Tablaturas
Misc Soundtrack

Misc Soundtrack

Avatar The Last Air Bender - Leaves From The Vine Fingerstyle

Cifras Cancelar Versão de Impressão
cifras

Misc Soundtrack - Avatar The Last Air Bender - Leaves From The Vine Fingerstyle

fixar na tela  
Exibindo: vídeo-aula ver clipes redimensionar

Tom:

  
e|---3-----------3------------3-----------3------------|   
B|-----------------------------------------------------| 
G|-----------------------------------------------------| 
D|------0-----------0-----0------0-----------0-----0---| 
A|---3-----3--1--0-----0------3-----3--1--0-----0------| 
E|-----------------------------------------------------| 
    Leaves from the vine,        falling  so  slow; 
e|-----------------------------------------------------| 
B|---3-----------3-----------3-----------3-------------| 
G|------------------2-----2-----------------2-----0----| 
D|------0--------0-----0--------0--------0-----0-------| 
A|---0-----0--1--------------0-----0--1----------------| 
E|-----------------------------------------------------| 
    Like fragile tiny shells,drifting in the foam. 


e|---3-----------3------------3-----------3------------|   
B|-----------------------------------------------------| 
G|-----------------------------------------------------| 
D|------0-----------0-----0------0-----------0-----0---| 
A|---3-----3-----0-----0------3-----3-----0-----0------| 
E|------------0------------------------0---------------| 
    Little soldier boy,         come marching home. 
e|---------------------------------------------------------------| 
B|---3-----------3-----------3-----------3-------------------3~~~| 
G|------------------2-----2-----------------2-----0--------------| 
D|------0--------0-----0--------0--------0-----0-----------------| 
A|---0-----0--1--------------0-----0--1----------------------3~~~| 
E|---------------------------------------------------------------| 
    Brave soldier boy,       comes marching home. 


************************************ 
| ~   Vibrato 
************************************ 
  

top 5 | misc soundtrack
top latinas
Outras músicas do artista letras do(a) Misc Soundtrack
Top cifras »Top artistas »
Petaxxon Comunicação Online
Cifras.com.br - Melhor e mais completo site de cifras e tablaturas do Brasil
Mais de 1 milhão de acordes de músicas cadastradas desde 2003
As informações contidas no nosso site são colaborações de seus usuários e podem conter erros, sendo assim, não nos responsabilizamos sobre nenhuma destas.
close
menos
mais
close
Cor dos acordes:

Cor da letra:

 

save
close
close
 
redimensionar