Cifras e Tablaturas
Misc Soundtrack

Misc Soundtrack

Le Visiteur Du Futur - Thème

Cifras Cancelar Versão de Impressão
cifras

Misc Soundtrack - Le Visiteur Du Futur - Thème

fixar na tela  
Exibindo: vídeo-aula ver clipes redimensionar

Tom:

  Intro 

e|---------------------------------------------------------------------------| 
B|---------------------------------------------------------------------------| 
G|---------------------------------------------------------------------------| 
D|-15-14-12----15-14-12----15-14-12----17-15-14-12---------------------------| 
A|---------------------------------------------------------------------------| 
E|---------------------------------------------------------------------------| 


Verse 

e|---------------------------------------------------------------------------| 
B|---------------------------------------------------------------------------| 
G|-10-9-7----10-9--------10-9-5--10-9-7--------------------------------------| 
D|-----------------8---------------------------------------------------------| 
A|---------------------------------------------------------------------------| 
E|---------------------------------------------------------------------------| 

e|---------------------------------------------------------------------------| 
B|---------------------------------------------------------------------------| 
G|-10-9-7----10-9--------10-9-5----------------------------------------------| 
D|-----------------8------------10-8-7---------------------------------------| 
A|---------------------------------------------------------------------------| 
E|---------------------------------------------------------------------------| 

e|----------------------------------6-5-3-5----------------------------------| 
B|---------------------------------------------------------------------------| 
G|-10-9-7----10-9------10-9-7--10-7----------9-7-9-7-5-7---------------------| 
D|-----------------8---------------------------------------------------------| 
A|---------------------------------------------------------------------------| 
E|---------------------------------------------------------------------------| 

 
  

top 5 | misc soundtrack
top latinas
Outras músicas do artista letras do(a) Misc Soundtrack
Top cifras »Top artistas »
Petaxxon Comunicação Online
Cifras.com.br - Melhor e mais completo site de cifras e tablaturas do Brasil
Mais de 1 milhão de acordes de músicas cadastradas desde 2003
As informações contidas no nosso site são colaborações de seus usuários e podem conter erros, sendo assim, não nos responsabilizamos sobre nenhuma destas.
close
menos
mais
close
Cor dos acordes:

Cor da letra:

 

save
close
close
 
redimensionar