Cifras e Tablaturas
Misc Soundtrack

Misc Soundtrack

Star Wars - March Of The Resistance

Cifras Cancelar Versão de Impressão
cifras

Misc Soundtrack - Star Wars - March Of The Resistance

fixar na tela  
Exibindo: vídeo-aula ver clipes redimensionar

Tom:

  
Lead Guitar 

e|----------------------------------------------------------------------------------------------------------| 
B|----------------------------------------------------------------------------------------------------------| 
G|----------------------------------------------------------------------------------------------------------| 
D|------------------------------------------------------------------------7----7--9-7-9-----7-9-10-9-10-----| 
A|---------------------------------------------5---5/7-9-10-9-10--10-9-10---10-----------10-----------------| 
E|-5-5-5--5-5-5-5-5-5--5-5-5-5--7-8-7-8--8-7-8---8----------------------------------------------------------| 

e|----------------------------------------------------------------------------------------------------------| 
B|--------------------------------------------7---------------7-8/10-11-10-11--11-10-11/13-11-13--15-13-15--| 
G|--------7----7-------7-8-------------7-8-10----------7-8-10-----------------------------------------------| 
D|-7-9-10---10----9-10----------7-8-10----------7-8-10------------------------------------------------------| 
A|---------------------------10-----------------------------------------------------------------------------| 
E|----------------------------------------------------------------------------------------------------------| 

e|---------------------------------------------13-15-14--15-14-15-------------------------------------------| 
B|----16----15-14-15/16--15-16/18-----13-15-16--------------------15-16----15-13----------------------------| 
G|-12----14------------------------15-----------------------------------14-------15-14-12-12-12-12----------| 
D|----------------------------------------------------------------------------------------------------------| 
A|----------------------------------------------------------------------------------------------------------| 
E|----------------------------------------------------------------------------------------------------------| 

e|-15-14-15-------------------------------------------------------------------------------------------------| 
B|----------15-16-----15----11-10-------------------------------------------------8-11-10--8-10-11-11-10----| 
G|-----------------14----12-------12-11---------------------7-7-5-7-7-7-7-5h7-10----------------------------| 
D|---------------------------------------8-8-7--8-8-7h8/10--------------------------------------------------| 
A|----------------------------------------------------------------------------------------------------------| 
E|----------------------------------------------------------------------------------------------------------| 

e|--------------------------------------------8-----------------10-9----------------------------------------| 
B|-8-8-8-----------8/10--11-11-11----11-10-11-----------8-10-11---------------------------------------------| 
G|-------6-7-----7-----------------8------------8-10-11-----------------------------------------------------| 
D|-----------8-8--------------------------------------------------------------------------------------------| 
A|----------------------------------------------------------------------------------------------------------| 
E|----------------------------------------------------------------------------------------------------------| 

e|-----------------------------------------------------------------------------------13-12------------------| 
B|-------------------------8----8-9-8-9----11----13----------11-13-14----------11-13------------------------| 
G|---7-9-10-9-10--11-10-11---11---------10----12----10-12-13----------10-12-13------------------------------| 
D|-7--------------------------------------------------------------------------------------------------------| 
A|----------------------------------------------------------------------------------------------------------| 
E|----------------------------------------------------------------------------------------------------------| 

e|----------------------------------------------------------------------------------------------------------| 
B|-6-5-6----------------------------------------------------------------------------------------------------| 
G|-------5-6---5-3------10-9-10\5/6-------------------------------------------------------------------------| 
D|-----------5-----6-5--------------5/10--------------------------------------------------------------------| 
A|----------------------------------------------------------------------------------------------------------| 
E|----------------------------------------------------------------------------------------------------------| 

e|----------------------------------------------------------------------------------------------------------| 
B|----------------------------------------------------------------------------------------------------------| 
G|---------------------------------------------------------------------------5---5/7-9-10-9-10-10-9-10------| 
D|---------------------------------------------------3---3/5-7-8-7-8---8-7-8---8----------------------------| 
A|---------------------------1---1/3-5-6-5-6--6-5-6----6----------------------------------------------------| 
E|-8-6-4-3-1--3-4-3-4--4-3-4---4----------------------------------------------------------------------------| 

e|-------------------------10-9-10----12-11-12---17-16-17---------------------------------------------------| 
B|-8--10-9-10----11-10-11-----------------------------------------------------------------------------------| 
G|----------------------------------------------------------------------------------------------------------| 
D|----------------------------------------------------------------------------------------------------------| 
A|----------------------------------------------------------------------------------------------------------| 
E|----------------------------------------------------------------------------------------------------------| 

e|-10-9-10--------------------10-9-10---------------13-12-10-9----------------------------------------------| 
B|---------10-11---10-8---------------10-11---10------------------------------------------------------------| 
G|---------------9------10-9----------------9---------------------------------------------------------------| 
D|-----------------------------------------------12---------------------------------------------------------| 
A|----------------------------------------------------------------------------------------------------------| 
E|----------------------------------------------------------------------------------------------------------| 

e|------------------------------------------8---------------9---10-10-10-10/13-12--13----13-13-12h13/15-----| 
B|-8-6------10-8-----------11-10-8------------11-10-8-10-11-------------------------------------------------| 
G|-----9-7-------10-9-8-9----------10-9-10-------------------------------------------14---------------------| 
D|----------------------------------------------------------------------------------------------------------| 
A|----------------------------------------------------------------------------------------------------------| 
E|----------------------------------------------------------------------------------------------------------| 

e|-17----17-15--17-17-17----17-15h17/18---------------------------------------------------------------------| 
B|----15-----------------15---------------------------------------------------------------------------------| 
G|----------------------------------------------------------------------------------------------------------| 
D|----------------------------------------------------------------------------------------------------------| 
A|----------------------------------------------------------------------------------------------------------| 
E|----------------------------------------------------------------------------------------------------------| 

e|------------------------------------------------------------12-13-----------13-14-15-17/18----------------| 
B|-8-6------10-8-----------11-10-8-------------------13-14-16--------13-14-16-------------------------------| 
G|-----9-7-------10-9-8-9----------10-9-10--12-14-15--------------------------------------------------------| 
D|----------------------------------------------------------------------------------------------------------| 
A|----------------------------------------------------------------------------------------------------------| 
E|----------------------------------------------------------------------------------------------------------| 

e|----------------------------------------------------------------------------------------------8-----------| 
B|-------------------------------------------------------------------9----------9-10-9-10/11----------------| 
G|--------------------------8----8-10-8-10-----11----10-9-10/11-10-11------10-11-------------10---10--------| 
D|-8-10--11-10-11--11-10-11---11-------------8----10---------------------11---------------------------------| 
A|----------------------------------------------------------------------------------------------------------| 
E|----------------------------------------------------------------------------------------------------------| 

e|-----------------------------------------------------------------------------15-17-18---------------------| 
B|-14-14-14--14-14-14-17-14-14--14-14-14-17-14-14--14-14-14-17-14-14--17-17-18------------------------------| 
G|----------------------------------------------------------------------------------------------------------| 
D|----------------------------------------------------------------------------------------------------------| 
A|----------------------------------------------------------------------------------------------------------| 
E|----------------------------------------------------------------------------------------------------------| 


e|-18-18-18-18-18-18---18-18-18-18-18-18---18-18-18-18--18--18-18-18-18-------------------------------------| 
B|----------------------------------------------------------------------------------------------------------| 
G|----------------------------------------------------------------------------------------------------------| 
D|----------------------------------------------------------------------------------------------------------| 
A|----------------------------------------------------------------------------------------------------------| 
E|----------------------------------------------------------------------------------------------------------| 

e|----------------------------------------------------------------------------------------------------------| 
B|----------------------------------------------------------------------------------------------------------| 
G|------------------------------8-10------------------------------------------------------------------------| 
D|-7-8-10--8-10-11-10-11--10-11-----------------------------------------------------------------------------| 
A|----------------------------------------------------------------------------------------------------------| 
E|----------------------------------------------------------------------------------------------------------| 

e|----------------------------------------------------------------------13-14-16-18-------------------------| 
B|-------------------------------------------------------------13-14-16-------------------------------------| 
G|-------------------13-15-15-15--15-15-15-15--15--------13-15----------------------------------------------| 
D|----------13-15-16-------------------------------15-16----------------------------------------------------| 
A|-13-15-16-------------------------------------------------------------------------------------------------| 
E|----------------------------------------------------------------------------------------------------------| 



************************************ 

| /  Slide up 
| h  Hammer-on 
| \  Slide down 

************************************ 
  

top 5 | misc soundtrack
top latinas
Outras músicas do artista letras do(a) Misc Soundtrack
Top cifras »Top artistas »
Petaxxon Comunicação Online
Cifras.com.br - Melhor e mais completo site de cifras e tablaturas do Brasil
Mais de 1 milhão de acordes de músicas cadastradas desde 2003
As informações contidas no nosso site são colaborações de seus usuários e podem conter erros, sendo assim, não nos responsabilizamos sobre nenhuma destas.
close
menos
mais
close
Cor dos acordes:

Cor da letra:

 

save
close
close
 
redimensionar