Cifras e Tablaturas
Misc Television

Misc Television

Doctor Who - Heaven Sent Breaking The Wall

Cifras Cancelar Versão de Impressão
cifras

Misc Television - Doctor Who - Heaven Sent Breaking The Wall

fixar na tela  
Exibindo: vídeo-aula ver clipes redimensionar

Tom:

  

e|---------------------------------------------------------------------------| 
B|-------0-1------0-1-3------------------------------------------------------| 
G|---1-2-----2--2-------0----------------------------------------------------| 
D|-2-----------------------3-2--0-3-2------0-2--3-2----0---------------------| 
A|------------------------------------3--3-----------3---2-------------------| 
E|---------------------------------------------------------------------------| 

e|---------------------------------------------------------------------------| 
B|-------0-1----0-1----------------------------------------------------0-1---| 
G|---1-2-----2------0----------------------------------------------1-2-----2-| 
D|-2------------------3-2-0-3-2-0--0-----0---------0----------0-2-2----------| 
A|-------------------------------3---2-0---3-2---3---2-0---2-----------------| 
E|--------------------------------------------3---------3--------------------| 

e|---------------------------------------------------------------------------| 
B|---0-1-3-------------------------1-3-0-------------------------------------| 
G|-2-------0-----------------------------------------------------------------| 
D|-----------3-2-0-3-2-----0-2-3-2-------------------------------------------| 
A|---------------------3-3---------------------------------------------------| 
E|---------------------------------------------------------------------------| 

e|-0-4-5--7-8-5--7-8-3-1-0---0-----------------------------------------------| 
B|-------------------------3---0--0-----0-1----------------1-3-0-------------| 
G|---------------------------------1-2-----2----0----------------------------| 
D|---------------------------------------------2--3-2-0-2--------------------| 
A|---------------------------------------------------------------------------| 
E|---------------------------------------------------------------------------| 

e|-0-4-5--7-8-5--7-8--3-1-0-0-3-------------1-0-----------------0------------| 
B|------------------------------1-3-1-0-0-3-----3-3---1-0-----1---3-1-1-3----| 
G|--------------------------------------------------2-----2-2----------------| 
D|---------------------------------------------------------------------------| 
A|---------------------------------------------------------------------------| 
E|---------------------------------------------------------------------------| 

e|-3-1-0-0-------------1-0-----1-1--0-----1-8-6-5-5-5--6-5-3-3-6-7-----------| 
B|---------1-3-1-0-0-3-----3-3-------3-3-------------------------------------| 
G|---------------------------------------------------------------------------| 
D|---------------------------------------------------------------------------| 
A|---------------------------------------------------------------------------| 
E|---------------------------------------------------------------------------| 

e|-3-7-8--10-11-8--8-10-11--13--6-4-3--3-7-8--10-11-8--8-10-11--13--6--11-15-| 
B|---------------------------------------------------------------------------| 
G|---------------------------------------------------------------------------| 
D|---------------------------------------------------------------------------| 
A|---------------------------------------------------------------------------| 
E|---------------------------------------------------------------------------| 

e|-3-7-8--10-11-8-7-6-5--8-7-6-5--8-7-6-5--8-8-8-8-8-8-8-8-------------------| 
B|---------------------------------------------------------1-1-1-1-1-1-1-----| 
G|---------------5-5-5--5-5-5-5--5-5-5-5--5----------------------------------| 
D|---------------------------------------------------------------------------| 
A|-----------------------------------------------------------------------3---| 
E|---------------------------------------------------------------------------| 
  

top 5 | misc television
top diversos
Outras músicas do artista letras do(a) Misc Television
Top cifras »Top artistas »
Petaxxon Comunicação Online
Cifras.com.br - Melhor e mais completo site de cifras e tablaturas do Brasil
Mais de 1 milhão de acordes de músicas cadastradas desde 2003
As informações contidas no nosso site são colaborações de seus usuários e podem conter erros, sendo assim, não nos responsabilizamos sobre nenhuma destas.
close
menos
mais
close
Cor dos acordes:

Cor da letra:

 

save
close
close
 
redimensionar