Cifras e Tablaturas
Misc Television

Misc Television

Erick Serna And The Killing Floor - Riverdale - Dig Your Grave

Cifras Cancelar Versão de Impressão
cifras

Misc Television - Erick Serna And The Killing Floor - Riverdale - Dig Your Grave

fixar na tela  
Exibindo: vídeo-aula ver clipes redimensionar

Tom:

  
verse 1 
e|---------------------------------| 
B|---------------------------------| 
G|---------------------------------| 
D|-0-------0---------0-----0-------| 
A|-----------------3---------------| 
D|-----0-------0-------0-------0---| 

e|---------------------------------| 
B|---------------------------------| 
G|---------------------------------| 
D|-0-------0---------0-----0-------| 
A|-----------------3---------------| 
D|-----0-------0-------0-------0---| 

e|---------------------------------| 
B|---------------------------------| 
G|---------------------------------| 
D|-0-------0---------0-----0-------| 
A|-----------------3---------------| 
D|-----0-------0-------0-------0---| 

e|---------------------------------| 
B|---------------------------------| 
G|---------------------------------| 
D|---------------------------------| 
A|---------------------------------| 
D|---3---------5-------------------| 

e|---------------------------------| 
B|---------------------------------| 
G|---------------------------------| 
D|-0-------0---------0-----0-------| 
A|-----------------3---------------| 
D|-----0-------0-------0-------0---| 

e|---------------------------------| 
B|---------------------------------| 
G|---------------------------------| 
D|-0-------0---------0-----0-------| 
A|-----------------3---------------| 
D|-----0-------0-------0-------0---| 

e|---------------------------------| 
B|---------------------------------| 
G|---------------------------------| 
D|-0-------0---------0-----0-------| 
A|-----------------3---------------| 
D|-----0-------0-------0-------0---| 

e|---------------------------------| 
B|---------------------------------| 
G|---------------------------------| 
D|-0-------0---------0-----0-------| 
A|-----------------3---------------| 
D|-----0-------0-------0-------0---| 

e|---------------------------------| 
B|---------------------------------| 
G|---------------------------------| 
D|---------------------------------| 
A|---------------------------------| 
D|---3---------5-------------------| 

e|---------------------------------| 
B|---------------------------------| 
G|---------------------------------| 
D|-0-------0---------0-----0-------| 
A|-----------------3---------------| 
D|-----0-------0-------0-------0---| 

e|---------------------------------| 
B|---------------------------------| 
G|---------------------------------| 
D|-0-------0---------0-----0-------| 
A|-----------------3---------------| 
D|-----0-------0-------0-------0---| 

e|---------------------------------| 
B|---------------------------------| 
G|---------------------------------| 
D|-0-------0---------0-----0-------| 
A|-----------------3---------------| 
D|-----0-------0-------0-------0---| 

e|---------------------------------| 
B|---------------------------------| 
G|---------------------------------| 
D|-0-------0---------0-----0-------| 
A|-----------------3---------------| 
D|-----0-------0-------0-------0---| 

e|---------------------------------| 
B|---------------------------------| 
G|---------------------------------| 
D|---------------------------------| 
A|---------------------------------| 
D|---3---------5-------------------| 

e|---------------------------------| 
B|---------------------------------| 
G|---------------------------------| 
D|-0-------0-----------------------| 
A|---------------------------------| 
D|-----0---------------------------| 

Chorus 1 
e|---------------------------------| 
B|---------------------------------| 
G|--3------------------------------| 
D|--3------------------------------| 
A|--1-----------------5------------| 
D|--------------------5------------| 

e|---------------------------------| 
B|---------------------------------| 
G|---------------------------------| 
D|---------------------------------| 
A|---0--------------0--------------| 
D|---0--------------0--------------| 

e|---------------------------------| 
B|---------------------------------| 
G|----5---5------------------------| 
D|----5---5------------------------| 
A|----3---3------------------------| 
D|---------------------------------| 

e|---------------------------------| 
B|---------------------------------| 
G|--3------------------------------| 
D|--3------------------------------| 
A|--1-----------------5------------| 
D|--------------------5------------| 

e|---------------------------------| 
B|---------------------------------| 
G|---------------------------------| 
D|---------------------------------| 
A|---0--------------0--------------| 
D|---0--------------0--------------| 

e|---------------------------------| 
B|---------------------------------| 
G|----5---5------------------------| 
D|----5---5------------------------| 
A|----3---3------------------------| 
D|---------------------------------| 

e|---------------------------------| 
B|---------------------------------| 
G|--3---3--------------------------| 
D|--3---3--------------------------| 
A|--1---1-------------5---5--------| 
D|--------------------5---5--------| 

e|---------------------------------| 
B|---------------------------------| 
G|---------------------------------| 
D|---------------------------------| 
A|---0--------------0--------------| 
D|---0--------------0--------------| 

e|---------------------------------| 
B|---------------------------------| 
G|----5---5------------------------| 
D|----5---5------------------------| 
A|----3---3------------------------| 
D|---------------------------------| 

e|---------------------------------| 
B|---------------------------------| 
G|--3---3--------------------------| 
D|--3---3--------------------------| 
A|--1---1-------------5---5--------| 
D|--------------------5---5--------| 

e|---------------------------------| 
B|---------------------------------| 
G|---------------------------------| 
D|---------------------------------| 
A|---0--------------0--------------| 
D|---0--------------0--------------| 

e|---------------------------------| 
B|---------------------------------| 
G|----5---5------------------------| 
D|----5---5------------------------| 
A|----3---3------0-----------------| 
D|---------------0-----------------| 

verse 2 
e|---------------------------------| 
B|---------------------------------| 
G|---------------------------------| 
D|---------------------------------| 
A|---------------------------------| 
D|---3---------5-------------------| 

e|---------------------------------| 
B|---------------------------------| 
G|---------------------------------| 
D|-0-------0-----------------------| 
A|---------------------------------| 
D|-----0---------------------------| 

e|---------------------------------| 
B|---------------------------------| 
G|---------------------------------| 
D|-0-------0---------0-----0-------| 
A|-----------------3---------------| 
D|-----0-------0-------0-------0---| 

e|---------------------------------| 
B|---------------------------------| 
G|---------------------------------| 
D|-0-------0---------0-----0-------| 
A|-----------------3---------------| 
D|-----0-------0-------0-------0---| 

e|---------------------------------| 
B|---------------------------------| 
G|---------------------------------| 
D|-0-------0---------0-----0-------| 
A|-----------------3---------------| 
D|-----0-------0-------0-------0---| 

e|---------------------------------| 
B|---------------------------------| 
G|---------------------------------| 
D|---------------------------------| 
A|---------------------------------| 
D|---3---------5------0------------| 

e|---------------------------------| 
B|---------------------------------| 
G|--3------------------------------| 
D|--3------------------------------| 
A|--1-----------------5------------| 
D|--------------------5------------| 

e|---------------------------------| 
B|---------------------------------| 
G|---------------------------------| 
D|---------------------------------| 
A|---0--------------0--------------| 
D|---0--------------0--------------| 

e|---------------------------------| 
B|---------------------------------| 
G|----5---5------------------------| 
D|----5---5------------------------| 
A|----3---3------------------------| 
D|---------------------------------| 

e|---------------------------------| 
B|---------------------------------| 
G|--3------------------------------| 
D|--3------------------------------| 
A|--1-----------------5------------| 
D|--------------------5------------| 

e|---------------------------------| 
B|---------------------------------| 
G|---------------------------------| 
D|---------------------------------| 
A|---0--------------0--------------| 
D|---0--------------0--------------| 

e|---------------------------------| 
B|---------------------------------| 
G|----5---5------------------------| 
D|----5---5------------------------| 
A|----3---3------------------------| 
D|---------------------------------| 

e|---------------------------------| 
B|---------------------------------| 
G|--3---3--------------------------| 
D|--3---3--------------------------| 
A|--1---1-------------5---5--------| 
D|--------------------5---5--------| 

e|---------------------------------| 
B|---------------------------------| 
G|---------------------------------| 
D|---------------------------------| 
A|---0--------------0--------------| 
D|---0--------------0--------------| 

e|---------------------------------| 
B|---------------------------------| 
G|----5---5------------------------| 
D|----5---5------------------------| 
A|----3---3------------------------| 
D|---------------------------------| 

e|---------------------------------| 
B|---------------------------------| 
G|--3---3--------------------------| 
D|--3---3--------------------------| 
A|--1---1-------------5---5--------| 
D|--------------------5---5--------| 

e|---------------------------------| 
B|---------------------------------| 
G|---------------------------------| 
D|---------------------------------| 
A|---0--------------0--------------| 
D|---0--------------0--------------| 

e|---------------------------------| 
B|---------------------------------| 
G|----5---5------------------------| 
D|----5---5------------------------| 
A|----3---3------------------------| 
D|---------------------------------| 

(Pause) 


Chorus 2/Outro 

e|---------------------------------| 
B|---------------------------------| 
G|--3---3--------------------------| 
D|--3---3--------------------------| 
A|--1---1-------------5---5--------| 
D|--------------------5---5--------| 

e|---------------------------------| 
B|---------------------------------| 
G|---------------------------------| 
D|---------------------------------| 
A|---0--------------0--------------| 
D|---0--------------0--------------| 

e|---------------------------------| 
B|---------------------------------| 
G|----5---5------------------------| 
D|----5---5------------------------| 
A|----3---3------------------------| 
D|---------------------------------| 

e|---------------------------------| 
B|---------------------------------| 
G|--3---3--------------------------| 
D|--3---3--------------------------| 
A|--1---1-------------5---5--------| 
D|--------------------5---5--------| 

e|---------------------------------| 
B|---------------------------------| 
G|---------------------------------| 
D|---------------------------------| 
A|---0--------------0--------------| 
D|---0--------------0--------------| 

e|---------------------------------| 
B|---------------------------------| 
G|----5---5------------------------| 
D|----5---5------------------------| 
A|----3---3------------------------| 
D|---------------------------------| 

e|---------------------------------| 
B|---------------------------------| 
G|---------------------------------| 
D|---------------------------------| 
A|---0-----------------------------| 
D|---0-----------------------------| 
  

top 5 | misc television
top diversos
Outras músicas do artista letras do(a) Misc Television
Top cifras »Top artistas »
Petaxxon Comunicação Online
Cifras.com.br - Melhor e mais completo site de cifras e tablaturas do Brasil
Mais de 1 milhão de acordes de músicas cadastradas desde 2003
As informações contidas no nosso site são colaborações de seus usuários e podem conter erros, sendo assim, não nos responsabilizamos sobre nenhuma destas.
close
menos
mais
close
Cor dos acordes:

Cor da letra:

 

save
close
close
 
redimensionar