Cifras e Tablaturas
Misc Television

Misc Television

Game Of Thrones Main Theme Rock

Cifras Cancelar Versão de Impressão
cifras

Misc Television - Game Of Thrones Main Theme Rock

fixar na tela  
Exibindo: vídeo-aula ver clipes redimensionar
  
Intro 

Starts on a Cm chord - Chug to the rhythm until the lead kicks in. 

e|--------------------------------------------------| 
B|---4--4--44--4--4--44--4--4--44--4--4--44---------| 
G|---5--5--55--5--5--55--5--5--55--5--5--55---------| 
D|---5--5--55--5--5--55--5--5--55--5--5--55---------| 
A|---3--3--33--3--3--33--3--3--33--3--3--33---------| 
E|--------------------------------------------------| 
PM   .  .  ..  .  .  ..  .  .  ..  .  .  .. 

Alternatively, clean pick this Cm 

E|------------------|------------------|------------------|------------------| 
B|--1---------------|--1---------------|--1---------------|--1---------------| 
G|---------------0--|---------------0--|---------------0--|---------------0--| 
D|------------1-----|------------1-----|------------1-----|------------1-----| 
A|-------3----------|-------3----------|-------3----------|-------3----------| 
E|------------------|------------------|------------------|------------------| 

      
e|---------------------------|---------------------------------------------------| 
B|---------------------------|---------------------------------------------------| 
G|---------------------------|---------------------------------------------------| 
D|--5---------3--5---------3-|---------------------------------------------------| 
A|-----3~--6--------3~--6----|-5--------3--5--------3--5-------3--5--------3-----| 
E|---------------------------|----3--6--------3--6-------3--6--------3--6--------| 

e|------------------------------|---------------------------------------------| 
B|------------------------------|---------------------------------------------| 
G|------------------------------|---------------------------------------------| 
D|--3------1--0--3------1p0-----|---------------------------------------------| 
A|-----1~-----------1~-------3--|-------3--------1--3--------1--3--------1----| 
E|------------------------------|-1--4-----1--4--------1--4--------1--4-------| 


Repeat this again OR play the harmony: 


e|----------------------------|--------------------------------------------------| 
B|--8~--------6--8~--------6--|--------------------------------------------------| 
G|------5--8---------5--8-----|-7--------5--7--------5--7--------5--7--------5---| 
D|----------------------------|----5--8--------5--8--------5--8--------5--8------| 
A|----------------------------|--------------------------------------------------| 
E|----------------------------|--------------------------------------------------| 

e|------------------------------|---------------------------------------------| 
B|--6~-----4--3--6------4p3-----|---------------------------------------------| 
G|------3-----------3~-------5--|-------5-----------5-----------5-------------| 
D|------------------------------|-5--6-----5--6--8-----5--6--8----5--6--8-----| 
A|------------------------------|---------------------------------------------| 
E|------------------------------|---------------------------------------------| 


High Melody 


e|--15-------11--13--15------11--13--|-----------------------------------------------------------| 
B|------13---------------13----------|-15---------13--15--------13--15--------13--15--------13---| 
G|-----------------------------------|-----12--15--------12--15--------12--15--------12--15------| 
D|-----------------------------------|-----------------------------------------------------------| 
A|-----------------------------------|-----------------------------------------------------------| 
E|-----------------------------------|-----------------------------------------------------------| 

e|--13~----------------------------|-------------------------------------------------------------------| 
B|-------11~----15--s16--s15---11--|-13--------------13--------------13--------------13----------------| 
G|---------------------------------|-----12--13--15------12--13--15------12--13--15------12--13--15----| 
D|---------------------------------|-------------------------------------------------------------------| 
A|---------------------------------|-------------------------------------------------------------------| 
E|---------------------------------|-------------------------------------------------------------------| 

  
Outro 
        
e|---------------------------------------------------3------------------------------| 
B|--13~--(13)-s-11~--(11)------8b9r8~--------4~--6~--6b8~~---------(18b20)----------| 
G|-------------------------5~-----------s-1~----------------------------------------| 
D|----------------------------------------------------------------------------------| 
A|----------------------------------------------------------------------------------| 
E|----------------------------------------------------------------------------------| 

e|--20~--(20)-s-18~--(18)-------20b21r20~----------------------| 
B|-------------------------------------------------16~--15~----| 
G|-------------------------17~--------------s-13~--------------| 
D|-------------------------------------------------------------| 
A|-------------------------------------------------------------| 
E|-------------------------------------------------------------| 

e|----------------------------------------------------------------------| 
B|--13-------------13--------------13--------------13-------------------| 
G|-----12--13--15------12--13--15------12--13--15------12--13--15-///---| 
D|----------------------------------------------------------------------| 
A|----------------------------------------------------------------------| 
E|----------------------------------------------------------------------| 

************************************ 
| (n)  Ghost note 
| p    Pull-off 
| r    Release 
| b    Bend 
| /    Slide up 
| ~    Vibrato 
| s    Slide 
   
************************************ 
  

cifra enviadasem correções
enviado porenviada por:bombaXXX
top 5 | misc television
top diversos
Outras músicas do artista letras do(a) Misc Television
Top cifras »Top artistas »
Petaxxon Comunicação Online
Cifras.com.br - Melhor e mais completo site de cifras e tablaturas do Brasil
Mais de 1 milhão de acordes de músicas cadastradas desde 2003
As informações contidas no nosso site são colaborações de seus usuários e podem conter erros, sendo assim, não nos responsabilizamos sobre nenhuma destas.
close
menos
mais
close
Cor dos acordes:

Cor da letra:

 

save
close
close
 
redimensionar