Cifras e Tablaturas
Misc Television

Misc Television

Ninpu Sentai Hurricanger - Gouraiger Theme Song

Cifras Cancelar Versão de Impressão
cifras

Misc Television - Ninpu Sentai Hurricanger - Gouraiger Theme Song

fixar na tela  
Exibindo: vídeo-aula ver clipes redimensionar

Tom:

  
Clean guitar *let ring* 
0:00 - 0:02 
e|----------6-------| 
B|-------3-----3--6-| 
G|----5-------------| 
D|-5----------------| 
A|------------------| 
E|------------------| 

Dist. guitar 
0:07 - 0:30 
e|----------------|--15--16-15-13-----|--------------------|-------------------------------------| 
B|-----13--15\11--|----------------13-|--15\11~--/18-------|-------------------------------------| 
G|-12-------------|-------------------|--------------------|-------------------------------------| 
D|----------------|-------------------|--------------------|---------20--\12b13r12b13r12b13~~~~--| 
A|----------------|-------------------|---------------18~--|-20--22------------------------------| 
E|----------------|-------------------|--------------------|-------------------------------------| 

0:30 - 0:54 
e|---------------/18-----|-----------------/20-\18-|------/18-\15~~~~~~----| 
B|----13-15-16-------15--|-----13-15-16------------|-18--------------------| 
G|-/12-------------------|-/12---------------------|-----------------------| 
D|-----------------------|-------------------------|-----------------------| 
A|-----------------------|-------------------------|-----------------------| 
E|-----------------------|-------------------------|-----------------------| 

Enjoy! 
  

top 5 | misc television
top diversos
Outras músicas do artista letras do(a) Misc Television
Top cifras »Top artistas »
Petaxxon Comunicação Online
Cifras.com.br - Melhor e mais completo site de cifras e tablaturas do Brasil
Mais de 1 milhão de acordes de músicas cadastradas desde 2003
As informações contidas no nosso site são colaborações de seus usuários e podem conter erros, sendo assim, não nos responsabilizamos sobre nenhuma destas.
close
menos
mais
close
Cor dos acordes:

Cor da letra:

 

save
close
close
 
redimensionar