Cifras e Tablaturas
Misc Traditional

Misc Traditional

Fingerstyle Blues

Cifras Cancelar Versão de Impressão
cifras

Misc Traditional - Fingerstyle Blues

fixar na tela  
Exibindo: vídeo-aula ver clipes redimensionar

Tom:

  
verse 1 
E|0h2-------------3-3r2---0-------|0h2-------------3-3p2---0-------| 
B|--------3-------------------3---|--------3-----------------------| 
G|----------4---------------------|----------4---------------------| 
D|----0-------0-------0-------0---|----0-------0-------0-------0---| 
A|--------------------------------|--------------------------------| 
D|0-------0-------0-------0-------|0-------0-------0-------0-------| 

E|0h2-------------3-3r2---0-------|0h2-------------3-3p2---0-------| 
B|--------3-------------------3---|--------3-----------------------| 
G|----------4---------------------|----------4---------------------| 
D|----0-------0-------0-------0---|----0-------0-------0-------0---| 
A|--------------------------------|--------------------------------| 
D|0-------0-------0-------0-------|0-------0-------0-------0-------| 

Chorus 
E|--------------------------------|--------------0---2-------------| 
B|3---------0---3-----------0---3-|--------------3---3-------------| 
G|0-------2---------------2-------|----------2---------------------| 
D|----0-------0-------0-------0---|----0-------0-------0-------0---| 
A|--------------------------------|--------------------------------| 
D|5-------5-------5-------5-------|0-------0-------0-------0-------| 

E|--------------------------------|--------------0---2-------------| 
B|2---------2---------------2---3-|--------------3---3-------------| 
G|--------4-----2---------4-------|----------2---------------------| 
D|----2-------2-------2-------2---|----0-------0-------0-------0---| 
A|0-------0-------0-------0-------|--------------------------------| 
D|--------------------------------|0-------0-------0-------0-------| 

verse 2 
E|-------0--------------0---2-----|-------0--------------0---------| 
B|----5/7---5-----3---------------|----5/7---5-----3---------3-----| 
G|--------------------------------|--------------------------------| 
D|----0-------0-------0-------0---|----0-------0-------0-------0---| 
A|--------------------------------|--------------------------------| 
D|0-------0-------0-------0-------|0-------0-------0-------0-------| 

E|-------0--------------0---2-----|-------0--------------0---------| 
B|----5/7---5-----3---------------|----5/7---5-----3---------3-----| 
G|--------------------------------|--------------------------------| 
D|----0-------0-------0-------0---|----0-------0-------0-------0---| 
A|--------------------------------|--------------------------------| 
D|0-------0-------0-------0-------|0-------0-------0-------0-------| 

Chorus 
E|--------------------------------|--------------0---2-------------| 
B|3---------0---3-----------0---3-|--------------3---3-------------| 
G|0-------2---------------2-------|----------2---------------------| 
D|----0-------0-------0-------0---|----0-------0-------0-------0---| 
A|--------------------------------|--------------------------------| 
D|5-------5-------5-------5-------|0-------0-------0-------0-------| 

                                     Slow down and strum last chord 
E|--------------------------------|--------------0---2-------------| 
B|2---------2---------------2---3-|--------------3---3-------------| 
G|--------4-----2---------4-------|----------2-------2-------------| 
D|----2-------2-------2-------2---|----0-------0-----0-------------| 
A|0-------0-------0-------0-------|--------------------------------| 
D|--------------------------------|0-------0-------0---------------| 



************************************ 

| h  Hammer-on 
| p  Pull-off 
| r  Release 
| /  Slide up 

************************************ 
  

top 5 | misc traditional
top diversos
Outras músicas do artista letras do(a) Misc Traditional
Top cifras »Top artistas »
Petaxxon Comunicação Online
Cifras.com.br - Melhor e mais completo site de cifras e tablaturas do Brasil
Mais de 1 milhão de acordes de músicas cadastradas desde 2003
As informações contidas no nosso site são colaborações de seus usuários e podem conter erros, sendo assim, não nos responsabilizamos sobre nenhuma destas.
close
menos
mais
close
Cor dos acordes:

Cor da letra:

 

save
close
close
 
redimensionar