Cifras e Tablaturas
Misc Traditional

Misc Traditional

The Rights Of Man

Cifras Cancelar Versão de Impressão Print

Misc Traditional - The Rights Of Man

Tom: E

  			

Part 1 

            ---3--- 
    E  E     E  E  E  E  E  E  E  E  E     E  E  E  E  Q    E  E    
e|--------|-----------------------------|-------------------0--2--| 
B|--------|--0-h1-h3-----0--------------|--------------0----1-----| 
G|--0-h2--|-----------2-----0-h2--0-----|--------0-h2-------0-----| 
D|--------|-----------0--------------4--|--2-h4--------2----------| 
A|--------|-----------------------------|-------------------------| 
E|--------|--3--------------3-----------|--0----------------------| 

    E  E  E  E  E  E  E  E     E  E  E  E  Q    E  E 
e|--3-p2--0-----0-----------|-------------------------| 
B|--1-----0--3-----3--0-h3--|--1-p0-------------------| 
G|--------0-----------------|--------2-p0--2----0-h2--| 
D|--2-----------------------|--------4-----0----------| 
A|--------------3-----2-----|--0----------------------| 
E|--------------------------|--------------1----------| 

            ---3--- 
    E  E     E  E  E  E  E  E  E  E  E     E  E  E  E  Q    E  E    
e|--------|-----------------------------|-------------------0--2--| 
B|--------|--0-h1-h3-----0--------------|--------------0----1-----| 
G|--0-h2--|-----------2-----0-h2--0-----|--------0-h2-------0-----| 
D|--------|-----------0--------------4--|--2-h4--------2----------| 
A|--------|-----------------------------|-------------------------| 
E|--------|--3--------------3-----------|--0----------------------| 

    E  E  E  E  E  E  E  E     Q    Q    Q 
e|--3-p2--0--------3--2--3--|--0--------*12----| 
B|-----------3--0-----------|-----------*12----| 
G|--------------------------|-----------*12----| 
D|--2-----0-----------------|------------------|    x2 
A|--------------2-----0-----|------*7----------| 
E|--------------------------|--0---------------| 

Part 2 

    E  E     E  E  E  E  E  E  E  E     E  E  E  E  E  E  E  E 
e|-----5--|--7-p5--7--------------5--|--7-p5--7-----------------| 
B|--8-----|-----------8--5-h7--8-----|-----------8--5-h8--7--5--| 
G|--------|--------------------------|--------------------------| 
D|--------|--------------------------|--------------------------| 
A|--------|--------------------------|--------------------------| 
E|--------|--0-----------0-----------|--0-----------0-----------| 

    Q    E  E  E  E  E  E     E  E  E  E  E  E  E  E  E  E  E  E  E  E  E  E  E 
e|-------------------------|--5-----7-----5-----------|-----------------------5--| 
B|----------------5-h7--8--|-----7-----7-----7-----7--|--5-----5-h7--8--7--8-----| 
G|--7----7-p6--7-----------|--------------------7-----|-----6--------------------| 
D|--0----------0-----------|--0-----------0-----------|--------------------------| 
A|-------------------------|--------------------------|--------------------------| 
E|-------------------------|--------------------------|--0-----------0-----------| 

    --3-- 
    E  E  E  E  E  E  E  E  E     E  E  E  E  E  E  E  E     Q    Q    Q 
e|--7-p5-----5-----------------|--------0-----------------|--0--------*12----| 
B|--------8-----7--8--7--5--7--|--8-p7--------0--8--7-h8--|-----------*12----| 
G|-----------------------------|-----------7--------------|-----------*12----| 
D|-----------------------------|--------0-----------------|------------------|    x2 
A|-----------------------------|--7-----------------0-----|------*7----------| 
E|-----------------------------|--------------7-----------|--0---------------| 

************************************ 

| h   Hammer-on 
| p   Pull-off 
| *   Harmonics 

************************************ 
    	
fixar
fixar inscrever-se

enviado porenviado por: sabrjoao
cifra enviadaCorrigida por: sem correções
logo top cifrasComente
ico música do artistaMúsicas deste artista
ico curtiuCurtiu?
ico destaqueDestaque
Petaxxon Comunicação Online

Cifras.com.br - Melhor e mais completo site de cifras e tablaturas do Brasil Mais de 1 milhão de acordes de músicas cadastradas desde 2003
As informações contidas no nosso site são colaborações de seus usuários e podem conter erros, sendo assim, não nos responsabilizamos sobre nenhuma destas.

close
menos
mais
close
Cor dos acordes:

Cor da letra:

close
Alinhar acordes a direita Alinhar acordes a esquerda Alinhar acordes em baixo Alinhar acordes no topo
close
  Mostrar todos os acordes Esconder acordes muito fáceis Esconder acordes fáceis Esconder acordes intermediários
redimensionar
glossário