Cifras e Tablaturas
Misc Your Songs

Misc Your Songs

Ellyria - Sincere

Cifras Cancelar Versão de Impressão Print

Misc Your Songs - Ellyria - Sincere

Tom:

  			Intro 
e|-------------------------------------| 
B|--10-------10-------10---------------| 
G|-----11-------11-------11------7\6---| 
D|--------11-------11-------11\9-----7-| 
A|-------------------------------------| 
D|-------------------------------------| 

  
Chorus  
e|--------------------------------------|--------------------------------------| 
B|--------------------------------------|--------------------------------------| 
G|----6------------------6--------------|----2-------2-----4/9\6---6-----------| 
D|--7---7--5-5-4-4-4-5/7---7--5-5-4h5p4-|2h4---4-2h4---4-2-------7--7-5-5-4h5p4|  
A|--------------------------------------|--------------------------------------| 
D|--------------------------------------|--------------------------------------| 

e|--------------------------------------| 
B|--------------------------------------| 
G|----6------------------6--------------| 
D|--7---7--5-5-4-4-4-5/7---7--5-5-4h5p4-| 
A|--------------------------------------| 
D|--------------------------------------| 

Verse  
e|--------------------------------------|--------------------------------------| 
B|-----2h3p2-----------2h3p2------------|-------7-9-7-------7-9-7\5------------| 
G|---2-------2-------2-------2----------|---9-7---------9-7--------------------| 
D|-4-----------4-2-4-----------4-2------|--------------------------------------| 
A|--------------------------------------|-7-----------7------------------------| 
D|--------------------------------------|--------------------------------------| 

e|--------------------------------------|--------------------------------------| 
B|-----2h3p2-----------2h3p2------------|-------7-9-7-------7-9-7-5/7\5\3\2----| 
G|---2-------2-------2-------2----------|---9-7---------9-7--------------------| 
D|-4-----------4-2-4-----------4--------|--------------------------------------| 
A|--------------------------------------|-7-----------7------------------------| 
D|--------------------------------------|--------------------------------------| 


Bridge 

e|--------------------------------------|--------------------------------------| 
B|-10/12-7-8-7p0------------------------|-10/12-7-8-10-7-----------------------| 
G|--------------------------------------|--------------------------------------| 
D|--------------------------------------|--------------------------------------| 
A|--------------------------------------|--------------------------------------| 
D|--------------------------------------|--------------------------------------| 

e|--------------------------------------|--------------------------------------| 
B|--10/12-7h8p7h8p7h8p7-----------------|--------------------------------------| 
G|--------------------------------------|--------------------------------------| 
D|--------------------------------------|--------------------------------------| 
A|--------------------------------------|--------------------------------------| 
D|--------------------------------------|--------------------------------------| 

verse 2 
e|--------------------------------------|--------------------------------------| 
B|-----2h3p2-----------2h3p2------------|-------7-9-7-------7-9-7\5------------| 
G|---2-------2-------2-------2----------|---9-7---------9-7--------------------| 
D|-4-----------4-2-4-----------4-2------|--------------------------------------| 
A|--------------------------------------|-7-----------7------------------------| 
D|--------------------------------------|--------------------------------------| 

e|--------------------------------------|--------------------------------------| 
B|-----2h3p2-----------2h3p2------------|-------7-9-7-------7-9-7-5/7-5\3\2h3/5| 
G|---2-------2-------2-------2----------|---9-7---------9-7--------------------| 
D|-4-----------4-2-4-----------4--------|--------------------------------------| 
A|--------------------------------------|-7-----------7------------------------| 
D|--------------------------------------|--------------------------------------| 

e|-------| 
B|-------| 
G|-4-6---| 
D|-----7-| 
A|-------| 
D|-------| 

Chorus 
e|--------------------------------------|--------------------------------------| 
B|--------------------------------------|--------------------------------------| 
G|----6------------------6--------------|----2-------2-----4/9\6---6-----------| 
D|--7---7--5-5-4-4-4-5/7---7--5-5-4h5p4-|2h4---4-2h4---4-2-------7--7-5-5-4h5p4| 
A|--------------------------------------|--------------------------------------| 
D|--------------------------------------|--------------------------------------| 

e|--------------------------------------| 
B|--------------------------------------| 
G|----6------------------6--------------| 
D|--7---7--5-5-4-4-4-5/7---7--5-5-4h5p4-| 
A|--------------------------------------| 
D|--------------------------------------| 


Ending 
verse 2 
e|--------------------------------------| 
B|-------7-9-7-------7-9-7\5------------| 
G|---9-7---------9-7--------------------| 
D|--------------------------------------| 
A|-7-----------7------------------------| 
D|--------------------------------------| 

e|--------------------------------------| 
B|-5/7-5\3\2----------------------------| 
G|--------------------------------------| 
D|--------------------------------------| 
A|--------------------------------------| 
D|--------------------------------------| 


************************************ 

| \  Slide down 
| /  Slide up 
| h  Hammer-on 
| p  Pull-off 

************************************ 
    	
fixar
fixar inscrever-se

enviado porenviado por: ubirbomfim
cifra enviadaCorrigida por: sem correções
logo top cifrasComente
ico música do artistaMúsicas deste artista
ico curtiuCurtiu?
ico destaqueDestaque
Petaxxon Comunicação Online

Cifras.com.br - Melhor e mais completo site de cifras e tablaturas do Brasil Mais de 1 milhão de acordes de músicas cadastradas desde 2003
As informações contidas no nosso site são colaborações de seus usuários e podem conter erros, sendo assim, não nos responsabilizamos sobre nenhuma destas.

close
menos
mais
close
Cor dos acordes:

Cor da letra:

close
Alinhar acordes a direita Alinhar acordes a esquerda Alinhar acordes em baixo Alinhar acordes no topo
close
  Mostrar todos os acordes Esconder acordes muito fáceis Esconder acordes fáceis Esconder acordes intermediários
redimensionar
glossário