Cifras e Tablaturas
Misc Your Songs

Misc Your Songs

Shine Like Stars (acoustic)

Cifras Cancelar Versão de Impressão
cifras

Misc Your Songs - Shine Like Stars (acoustic)

fixar na tela  
Exibindo: vídeo-aula ver clipes redimensionar

Tom:

  
e|---------------------------------------------------------------------------| 
B|-----8---------------------------------------------------------------------| 
G|---7------8----9-----------------------------------------------------------| 
D|--9------7----8------------------------------------------------------------| 
A|-7--7---9---10-------------------------------------------------------------| 
E|-------7---8---------------------------------------------------------------| 

Play progression above. An upload of Mp3 will become available soon. This song  
was written and first played on YouNow. Find the broadcast /ChristianSutter. The 
recorded version of this song will become available in the future. 


     We can start from scratch                  and make it to the top 
     We can make a hot song                     and make the beat drop 
     We can take the record to the city         get it spun 
     Say Props to the DJ’s                      that was nice put us on 


e|-0-----0-----X-----x-------------------------------------------------------| 
B|-8-----7-----X-----x-------------------------------------------------------| 
G|-7-----0-----8-----5-------------------------------------------------------| 
D|-0-----7-----9-----7-------------------------------------------------------| 
A|-7-----5-----9-----7-------------------------------------------------------| 
E|-X-----X-----7-----5-------------------------------------------------------| 

     If you believe that we should team up 
     Make plans for stardom 
     We can make a promise to work our hardest  
     To get this dream on 


e|-0-----5-----7-------------------------------------------------------------| 
B|-5-----5-----7-------------------------------------------------------------| 
G|-0-----6-----7-------------------------------------------------------------| 
D|-5-----5-----9-------------------------------------------------------------| 
A|-3-----7-----7-------------------------------------------------------------| 
E|-X-----5-----x-------------------------------------------------------------| 

     We should team up 
     Get the dream on  
     Shine like stars my friend 


e|---------------------------------------------------------------------------| 
B|-----8---------------------------------------------------------------------| 
G|---7------8----9-----------------------------------------------------------| 
D|--9------7----8------------------------------------------------------------| 
A|-7--7---9---10-------------------------------------------------------------| 
E|-------7---8---------------------------------------------------------------| 

     We can start from scratch                and become bff’s  
     If you have the talent                   and I can see that 
     The it factor that                       makes you up and coming 
     You can become something                 If you want it bad 

e|-0-----0-----X-----x-------------------------------------------------------| 
B|-8-----7-----X-----x-------------------------------------------------------| 
G|-7-----0-----8-----5-------------------------------------------------------| 
D|-0-----7-----9-----7-------------------------------------------------------| 
A|-7-----5-----9-----7-------------------------------------------------------| 
E|-X-----X-----7-----5-------------------------------------------------------| 

     If you believe that we should team up 
     Make plans for stardom 
     We can make a promise to work our hardest  
     To get this dream on 

e|-0-----5-----7-------------------------------------------------------------| 
B|-5-----5-----7-------------------------------------------------------------| 
G|-0-----6-----7-------------------------------------------------------------| 
D|-5-----5-----9-------------------------------------------------------------| 
A|-3-----7-----7-------------------------------------------------------------| 
E|-X-----5-----x-------------------------------------------------------------| 

     We should team up 
     Get the dream on  
     Shine like stars my friend 

e|---------------------------------------------------------------------------| 
B|-----8---------------------------------------------------------------------| 
G|---7------8----9-----------------------------------------------------------| 
D|--9------7----8------------------------------------------------------------| 
A|-7--7---9---10-------------------------------------------------------------| 
E|-------7---8---------------------------------------------------------------| 

You have the look                A lot of people have that 
You talk the talk                that sparked my interest 
We should have a conversation    about my A Team 
With YouNow we’ll make a         run for the dream 

e|-0-----0-----X-----x-------------------------------------------------------| 
B|-8-----7-----X-----x-------------------------------------------------------| 
G|-7-----0-----8-----5-------------------------------------------------------| 
D|-0-----7-----9-----7-------------------------------------------------------| 
A|-7-----5-----9-----7-------------------------------------------------------| 
E|-X-----X-----7-----5-------------------------------------------------------| 

     If you believe that we should team up 
     Make plans for stardom 
     We can make a promise to work our hardest  
     To get this dream on 

e|-0-----5-----7-------------------------------------------------------------| 
B|-5-----5-----7-------------------------------------------------------------| 
G|-0-----6-----7-------------------------------------------------------------| 
D|-5-----5-----9-------------------------------------------------------------| 
A|-3-----7-----7-------------------------------------------------------------| 
E|-X-----5-----x-------------------------------------------------------------| 

     We should team up 
     Get the dream on  
     Shine like stars my friend 


************************************ 

| x   Dead note 
| g   Grace note 
| (n) Ghost note 
| h   Hammer-on 
| p   Pull-off 
| r   Release 
| >   Accented note 
| t   Tapping 
| b   Bend 
| br  Bend release 
| pb  Pre-bend 
| pbr Pre-bend release 
| /   Slide up 
| \   Slide down 
| ~   Vibrato 
| s   Slap 
| P   Pop 
| PM  Palm mute 
| TR  Trill 
| N   Tremolo 

************************************ 
  

top 5 | misc your songs
top rock'n roll
Outras músicas do artista letras do(a) Misc Your Songs
Top cifras »Top artistas »
Petaxxon Comunicação Online
Cifras.com.br - Melhor e mais completo site de cifras e tablaturas do Brasil
Mais de 1 milhão de acordes de músicas cadastradas desde 2003
As informações contidas no nosso site são colaborações de seus usuários e podem conter erros, sendo assim, não nos responsabilizamos sobre nenhuma destas.
close
menos
mais
close
Cor dos acordes:

Cor da letra:

 

save
close
close
 
redimensionar