Cifras e Tablaturas
Miss May I

Miss May I

Trust My Heart Never Hope To Die

Cifras Cancelar Versão de Impressão

Miss May I - Trust My Heart Never Hope To Die

Tom: C

  			
Tuning: C G C F A D 

Riff 1 - 00:00 - 00:01 
- ------------- 
- ------------- 
- ------------- 
- -----10\----- 
- -----8\------ 
- -0-0--------- 
PM ... 


Riff 2, Guitar 1 & 2 - 00:01 - 00:09 
- ----------------------------------------------------------------- 
- ----------------------------------------------------------------- 
- ----------------------------------------------------------------- 
- -0--------------------------------------------------------------- 
- -0--------------------------------------------------------------- 
- -0--------------------------------------------------------------- 
- 
- ----------------------------------------------------------------- 
- ----------------------------------------------------------------- 
- ----------------------------------------------------------------- 
- -------------------------------------------------------5--------- 
- -5h8---------------7---8---------5h8---------------8------------- 
- -----0-0-0-0-0-0-0---0---0-0-0-0-----0-0-0-0-0-0-0---0---0-0-0-0- 
PM     .............   .   .......     .............   .   ....... 


- ----------------------------------------------------------------- 
- ----------------------------------------------------------------- 
- ----------------------------------------------------------------- 
- -0-------------------------------3---------------5--------------- 
- -0-------------------------------3---------------5--------------- 
- -0-------------------------------3---------------5--------------- 
- 
- ----------------------------------------------------------------- 
- ----------------------------------------------------------------- 
- ----------------------------------------------------------------- 
- ---------------------------------------7-7-7-------------7-5----- 
- -5h8---------------7---8-------------------------3-3-5-5-----8-7- 
- -----0-0-0-0-0-0-0---0---0-0-0-0-8-8-8-------8-8----------------- 
PM     .............   .   .............       ........... 


Riff 3, Guitar 1 & 2 - 00:09 - 00:27 - x2 
- ---------------------------------------------------------------------- 
- ---------------------------------------------------------------------- 
- ---------------------------------------------------------------------- 
- ------------------------------------------------------------8--------- 
- -8h12---------------10---12---------8h12---------------12------------- 
- ------0-0-0-0-0-0-0----0----0-0-0-0------0-0-0-0-0-0-0----0---0-0-0-0- 
PM      .............    .    .......      .............    .   ....... 
- ---------------------------------------------------------------------- 
- ---------------------------------------------------------------------- 
- ---------------------------------------------------------------------- 
- ------------------------------------------------------------5--------- 
- -5h8----------------7----8----------5h8----------------8-------------- 
- ------0-0-0-0-0-0-0----0----0-0-0-0------0-0-0-0-0-0-0----0---0-0-0-0- 
PM      .............    .    .......      .............    .   ....... 


- -------------------------------------------------------------------------- 
- -------------------------------------------------------------------------- 
- -------------------------------------------------------------------------- 
- ------------------------------------------10-10-10-------------10-8------- 
- -8h12---------------10---12----------------------------7-7-8-8------12-10- 
- ------0-0-0-0-0-0-0----0----0-0-0-0-8-8-8----------8-8-------------------- 
PM      .............    .    .............          ........... 
- -------------------------------------------------------------------------- 
- -------------------------------------------------------------------------- 
- -------------------------------------------------------------------------- 
- ------------------------------------------7--7--7--------------7--5------- 
- -5h8----------------7----8-----------------------------3-3-5-5------8--5-- 
- ------0-0-0-0-0-0-0----0----0-0-0-0-8-8-8----------8-8-------------------- 
PM      .............    .    .............          ........... 


Riff 4, Guitar 1 & 2 - 00:27 - 00:44 
- ----------------------------------------------------------------- 
- ----------------------------------------------------------------- 
- ----------------------------------------------------------------- 
- -----------------------------------------------------5----------- 
- -5-----5-----5---8-----8-----8---7-----7-----7---8-------8---7--- 
- ---0-0---0-0---0---0-0---0-0---0---0-0---0-0---0---0---0---0---0- 
PM     .     .   .     .     .   .     .     .   .   .   .   .   . 
- ----------------------------------------------------------------- 
- ----------------------------------------------------------------- 
- ----------------------------------------------------------------- 
- -----------------------------------------------------5----------- 
- -5-----5-----5---8-----8-----8---7-----7-----7---8-------8---7--- 
- ---0-0---0-0---0---0-0---0-0---0---0-0---0-0---0---0---0---0---0- 
PM     .     .   .     .     .   .     .     .   .   .   .   .   . 


- --------------------------------------------------------------------- 
- --------------------------------------------------------------------- 
- --------------------------------------------------------------------- 
- -------------------------------------------------7h8p7----7---------- 
- -5-----5-----5---8-----8-----8-------5---5---5---------10---10-8-7-8- 
- ---0-0---0-0---0---0-0---0-0---0h8-8---8---8---8--------------------- 
PM     .     .   .     .     .       .   .   .   . 
- --------------------------------------------------------------------- 
- --------------------------------------------------------------------- 
- --------------------------------------------------------------------- 
- -------------------------------------------------7h8p7----7---------- 
- -5-----5-----5---8-----8-----8-------5---5---5---------10---10-8-7-8- 
- ---0-0---0-0---0---0-0---0-0---0h8-8---8---8---8--------------------- 
PM     .     .   .     .     .       .   .   .   . 


- -------------------------------------------------------------------------- 
- -------------------------------------------------------------------------- 
- -------------------------------------------------------------------------- 
- ------------------------------------------------------------5------------- 
- -5-----5-----5---8------8------8----7------7------7----8--------8----7---- 
- ---0-0---0-0---0----0-0----0-0----0----0-0----0-0----0----0---0----0----0- 
PM     .     .   .      .      .    .      .      .    .    .   .    .    . 
- -------------------------------------------------------------------------- 
- -------------------------------------------------------------------------- 
- -------------------------------------------------------------------------- 
- ------------------------------------------------------------8------------- 
- -8-----8-----8---12-----12-----12---10-----10-----10---12-------12---10--- 
- ---0-0---0-0---0----0-0----0-0----0----0-0----0-0----0----0---0----0----0- 
PM     .     .   .      .      .    .      .      .    .    .   .    .    . 


- -------------------------------------------------------------------------- 
- -------------------------------------------------------------------------- 
- ----------------------------------------------------------------9b-------- 
- -------------------------------------------------------------------------- 
- -5-----5-----5---8------8------8--------5---5---5------------------------- 
- ---0-0---0-0---0----0-0----0-0----0h8-8---8---8---8-10-10-10-10----------- 
PM     .     .   .      .      .        .   .   .   ............. 
- -------------------------------------------------------------------------- 
- -------------------------------------------------------------------------- 
- ----------------------------------------------------------------12b------- 
- -------------------------------------------------------------------------- 
- -8-----8-----8---12-----12-----12-------8---8---8------------------------- 
- ---0-0---0-0---0----0-0----0-0----0h8-8---8---8---8-10-10-10-10----------- 
PM     .     .   .      .      .        .   .   .   ............. 


Riff 5, Guitar 1 & 2 - 00:44 - 01:02 - x2 
- ---------------------------------------------------------------------------------------- 
- ---------------------------------------------------------------------------------------- 
- ---------------------------------------------------------------------------------------- 
- -5--------------------------------------8----------------------------------------------- 
- -5--------------------------------------8----------------------------------------------- 
- -5--------------------------------------8----------------------------------------------- 
- 
- ---------------------------------------------------------------------------------------- 
- -11-----11-----10-----10-----10---10----11-------11-------10-------10-------10----10---- 
- ----7-7----7-7----7-7----7-7----7----10----10-10----10-10----10-10----10-10----10------- 
- -------------------------------------------------------------------------------------10- 
- ---------------------------------------------------------------------------------------- 
- ---------------------------------------------------------------------------------------- 
PM    ...    ...    ...    ...    .    ..    .....    .....    .....    .....    ..    .. 


- ---------------------------------------------------------------------------------------- 
- ---------------------------------------------------------------------------------------- 
- ---------------------------------------------------------------------------------------- 
- -3----------------------------------------------1--------------------------3------------ 
- -3----------------------------------------------1--------------------------3------------ 
- -3----------------------------------------------1--------------------------3------------ 
- 
- --------------------------------------------------------------------------------------- 
- ----------------------10-------10----10----10---8-----10---8---11-----11---10----10---- 
- -12-------10----12----------------------------8---8-8----8---8----8-8----8----10----10- 
- ----10-10----10----10----10-10----10----10--------------------------------------------- 
- --------------------------------------------------------------------------------------- 
- --------------------------------------------------------------------------------------- 
PM    .....    ..    ..    .....    ..    ..    .   ...    .   .    ...    .    ..    .. 


Riff 6, Guitar 1 & 2 - 01:02 - 01:02 - 01:19 
- ---------------------------------------------------------------------- 
- ---------------------------------------------------------------------- 
- ---------------------------------------------------------------------- 
- ------------------------------------------------------------8--------- 
- -8h12---------------10---12---------8h12---------------12------------- 
- ------0-0-0-0-0-0-0----0----0-0-0-0------0-0-0-0-0-0-0----0---0-0-0-0- 
PM      .............    .    .......      .............    .   ....... 
- ---------------------------------------------------------------------- 
- ---------------------------------------------------------------------- 
- ---------------------------------------------------------------------- 
- -0------------------0----0----------------------------------5--------- 
- -0------------------0----0----------5h8----------------8-------------- 
- -0------------------0----0---------------0-0-0-0-0-0-0----0---0-0-0-0- 
PM                                         .............    .   ....... 


- -------------------------------------------------------------------------- 
- -------------------------------------------------------------------------- 
- -------------------------------------------------------------------------- 
- ------------------------------------------10-10-10-------------10-8------- 
- -8h12---------------10---12----------------------------7-7-8-8------12-10- 
- ------0-0-0-0-0-0-0----0----0-0-0-0-8-8-8----------8-8-------------------- 
PM      .............    .    .............          ........... 
- -------------------------------------------------------------------------- 
- -------------------------------------------------------------------------- 
- -------------------------------------------------------------------------- 
- ------------------------------------------7--7--7--------------7--5------- 
- -5h8----------------7----8-----------------------------3-3-5-5------8--5-- 
- ------0-0-0-0-0-0-0----0----0-0-0-0-8-8-8----------8-8-------------------- 
PM      .............    .    .............          ........... 


- ---------------------------------------------------------------------- 
- ---------------------------------------------------------------------- 
- ---------------------------------------------------------------------- 
- ------------------------------------------------------------8--------- 
- -8h12---------------10---12---------8h12---------------12------------- 
- ------0-0-0-0-0-0-0----0----0-0-0-0------0-0-0-0-0-0-0----0---0-0-0-0- 
PM      .............    .    .......      .............    .   ....... 
- ---------------------------------------------------------------------- 
- ---------------------------------------------------------------------- 
- ---------------------------------------------------------------------- 
- ------------------------------------------------------------5--------- 
- -5h8----------------7----8----------5h8----------------8-------------- 
- ------0-0-0-0-0-0-0----0----0-0-0-0------0-0-0-0-0-0-0----0---0-0-0-0- 
PM      .............    .    .......      .............    .   ....... 


- -------------------------------------------------------------------------- 
- -------------------------------------------------------------------------- 
- -------------------------------------------------------------------------- 
- ------------------------------------------10-10-10-------------10-8------- 
- -8h12---------------10---12----------------------------7-7-8-8------12-10- 
- ------0-0-0-0-0-0-0----0----0-0-0-0-8-8-8----------8-8-------------------- 
PM      .............    .    .............          ........... 
- -------------------------------------------------------------------------- 
- -------------------------------------------------------------------------- 
- -------------------------------------------------------------------------- 
- ------------------------------------------7--7--7--------------7--5------- 
- -5h8----------------7----8-----------------------------3-3-5-5------8--5-- 
- ------0-0-0-0-0-0-0----0----0-0-0-0-8-8-8----------8-8-------------------- 
PM      .............    .    .............          ........... 


Riff 4, Guitar 1 & 2 - 01:19 - 01:37 


Riff 7, Guitar 1 & 2 - 01:37 - 01:41 
- ----------------------------------------------------------------- 
- ----------------------------------------------------------------- 
- ----------------------------------------------------------------- 
- -7\----------------------------------------------8-----7-----3--- 
- -5\----------------------------------------------8-----8-----3--- 
- -------------------------------------------------8-----7-----3--- 
- 
- ----------------------------------------------------------------- 
- ----------------------------------------------------------------- 
- ----------------------------------------------------------------- 
- -7\------------------------------7\--------------8-----7-----3--- 
- -5\------------------------------5\--------------8-----8-----3--- 
- -----0-0-0-0---------0-0---0-0-0-----0-0-0-0-0-0-8-----7-----3--- 
PM     ...........................     ........... 


Riff 8a, Guitar 1 & 2 - 01:41 - 01:59 - x2 
- ----------------------------------------------------------------- 
- ----------------------------------------------------------------- 
- ----------------------------------------------------------------- 
- -7\------------------------------7\--------------8-----7-----3--- 
- -5\------------------------------5\--------------8-----8-----3--- 
- -----0-0-0-0---------0-0---0-0-0-----0-0-0-0-0-0-8-----7-----3--- 
PM     ...........................     ........... 
- ----------------------------------------------------------------- 
- ----------------------------------------------------------------- 
- ----------------------------------------------------------------- 
- -7\------------------------------7\--------------8-----7-----3--- 
- -5\------------------------------5\--------------8-----8-----3--- 
- -----0-0-0-0---------0-0---0-0-0-----0-0-0-0-0-0-8-----7-----3--- 
PM     ...........................     ........... 


- ------------------------------------------------------------------------- 
- ------------------------------------------------------------------------- 
- ------------------------------------------------------------------------- 
- -7\---------------------------------------------------------------------- 
- -5\----------------------------------5---5---5---------7-----7-----7h8--- 
- -----0-0-0-0---------0-0---0-0-0-8-8---8---8---8-10-10----10----10------- 
PM     ...............................   .   .   .......    ..    .. 
- ------------------------------------------------------------------------- 
- ------------------------------------------------------------------------- 
- ------------------------------------------------------------------------- 
- -7\---------------------------------------------------------------------- 
- -5\----------------------------------8---8---8---------10----10----10h12- 
- -----0-0-0-0---------0-0---0-0-0-8-8---8---8---8-10-10----10----10------- 
PM     ...............................   .   .   .......    ..    .. 


Riff 8b - 01:50 - 01:59 
- -10------------------------------11------------------------------ 
- -14b-----------------------------15b----------------------------- 
- ----------------------------------------------------------------- 
- ----------------------------------------------------------------- 
- ----------------------------------------------------------------- 
- ----------------------------------------------------------------- 

- -10-------------------------------------------------------------- 
- -14b------------------------------------------------------------- 
- ----------------------------------------------------------------- 
- ----------------------------------------------------------------- 
- ----------------------------------------------------------------- 
- ----------------------------------------------------------------- 


Riff 9, Guitar 1 & 2 - 01:59 - 02:07 
- ----------------------------------------------------------------- 
- ----------------------------------------------------------------- 
- ----------------------------------------------------------------- 
- -5---------------8---------------3---------------1-------3------- 
- -5---------------8---------------3---------------1-------3------- 
- -5---------------8---------------3---------------1-------3------- 
- 
- ----------------------------------------------------------------- 
- /11\10-8--------/11\10-8--------/11\10-8------------------------- 
- -x--x--x---------x--x--x---------x--x--x-----10--8--------------- 
- /8-\7--5--------/8-\7--5--------/8-\7--5-----x---x--------------- 
- ---------------------------------------------8---6--------------- 
- ----------------------------------------------------------------- 


Riff 5, Guitar 1 & 2 - 02:07 - 02:25 - x2 


Riff 10a, Guitar 1 & 2 - 02:25 - 02:42 
- ---------------------------------------------------------------------------------------- 
- ---------------------------------------------------------------------------------------- 
- ---------------------------------------------------------------------------------------- 
- -5--------------------------------------8----------------------------------------------- 
- -5--------------------------------------8----------------------------------------------- 
- -5--------------------------------------8----------------------------------------------- 
- 
- ---------------------------------------------------------------------------------------- 
- -11-----11-----10-----10-----10---10----11-------11-------10-------10-------10----10---- 
- ----7-7----7-7----7-7----7-7----7----10----10-10----10-10----10-10----10-10----10------- 
- -------------------------------------------------------------------------------------10- 
- ---------------------------------------------------------------------------------------- 
- ---------------------------------------------------------------------------------------- 
PM    ...    ...    ...    ...    .    ..    .....    .....    .....    .....    ..    .. 


- ---------------------------------------------------------------------------------------- 
- ---------------------------------------------------------------------------------------- 
- ---------------------------------------------------------------------------------------- 
- -3----------------------------------------------1--------------------------3------------ 
- -3----------------------------------------------1--------------------------3------------ 
- -3----------------------------------------------1--------------------------3------------ 
- 
- --------------------------------------------------------------------------------------- 
- ----------------------10-------10----10----10---8-----10---8---11-----11---10----10---- 
- -12-------10----12----------------------------8---8-8----8---8----8-8----8----10----10- 
- ----10-10----10----10----10-10----10----10--------------------------------------------- 
- --------------------------------------------------------------------------------------- 
- --------------------------------------------------------------------------------------- 
PM    .....    ..    ..    .....    ..    ..    .   ...    .   .    ...    .    ..    .. 


- ---------------------------------------------------------------------------------------- 
- ---------------------------------------------------------------------------------------- 
- ---------------------------------------------------------------------------------------- 
- -5--------------------------------------8----------------------------------------------- 
- -5--------------------------------------8----------------------------------------------- 
- -5--------------------------------------8----------------------------------------------- 
- 
- ---------------------------------------------------------------------------------------- 
- -11-----11-----10-----10-----10---10----11-------11-------10-------10-------10----10---- 
- ----7-7----7-7----7-7----7-7----7----10----10-10----10-10----10-10----10-10----10------- 
- -------------------------------------------------------------------------------------10- 
- ---------------------------------------------------------------------------------------- 
- ---------------------------------------------------------------------------------------- 
PM    ...    ...    ...    ...    .    ..    .....    .....    .....    .....    ..    .. 


- ---------------------------------------------------------------------------------------- 
- ---------------------------------------------------------------------------------------- 
- ---------------------------------------------------------------------------------------- 
- -3----------------------------------------------1----------------8--------7--------3---- 
- -3----------------------------------------------1----------------8--------8--------3---- 
- -3----------------------------------------------1----------------8--------7--------3---- 
- 
- --------------------------------------------------------------------------------------- 
- ----------------------10-------10----10----10---8-----10---8--------------------------- 
- -12-------10----12----------------------------8---8-8----8---8-8----------------------- 
- ----10-10----10----10----10-10----10----10--------------------------------------------- 
- --------------------------------------------------------------------------------------- 
- --------------------------------------------------------------------------------------- 
PM    .....    ..    ..    .....    ..    ..    .   ...    .   ... 


Riff 10b - 02:25 - 02:42 
- ------------------------------------------------------------------------------------------------- 
- -15-------15-------13-------13-------13----13----15-------15-------13-------13-------13----13---- 
- ----12-12----12-12----12-12----12-12----12----12----15-15----15-15----15-15----15-15----15----15- 
- ------------------------------------------------------------------------------------------------- 
- ------------------------------------------------------------------------------------------------- 
- ------------------------------------------------------------------------------------------------- 
PM    .....    .....    .....    .....    ..    ..    .....    .....    .....    .....    ..    .. 

- ------------------------------------------------------------------------------------------------- 
- -11-------10----11----13-------13----13----13----11-------10----11----15-------15----13----13---- 
- ----12-12----12----12----12-12----12----12----12----12-12----12----12----12-12----12----14----14- 
- ------------------------------------------------------------------------------------------------- 
- ------------------------------------------------------------------------------------------------- 
- ------------------------------------------------------------------------------------------------- 
PM    .....    ..    ..    .....    ..    ..    ..    .....    ..    ..    .....    ..    ..    .. 

- ------------------------------------------------------------------------------------------------- 
- -15-------15-------13-------13-------13----13----15-------15-------13-------13-------13----13---- 
- ----12-12----12-12----12-12----12-12----12----12----15-15----15-15----15-15----15-15----15----15- 
- ------------------------------------------------------------------------------------------------- 
- ------------------------------------------------------------------------------------------------- 
- ------------------------------------------------------------------------------------------------- 
PM    .....    .....    .....    .....    ..    ..    .....    .....    .....    .....    ..    .. 

- ------------------------------------------------------------------------------------------------- 
- -11-------10----11----13-------13----13----13----11-------10----11------------------------------- 
- ----12-12----12----12----12-12----12----12----12----12-12----12----12-12------------------------- 
- ------------------------------------------------------------------------------------------------- 
- ------------------------------------------------------------------------------------------------- 
- ------------------------------------------------------------------------------------------------- 
PM    .....    ..    ..    .....    ..    ..    ..    .....    ..    ..... 


Riff 11, Guitar 1 & 2 - 02:42 - 02:52 
- ----------------------------------------------------------------- 
- ----------------------------------------------------------------- 
- ----------------------------------------------------------------- 
- -7\------------------------------7\--------------8-----7-----3--- 
- -5\------------------------------5\--------------8-----8-----3--- 
- -----0-0-0-0---------0-0---0-0-0-----0-0-0-0-0-0-8-----7-----3--- 
PM     ...........................     ........... 
- ----------------------------------------------------------------- 
- ----------------------------------------------------------------- 
- ----------------------------------------------------------------- 
- -7\------------------------------7\--------------8-----7-----3--- 
- -5\------------------------------5\--------------8-----8-----3--- 
- -----0-0-0-0---------0-0---0-0-0-----0-0-0-0-0-0-8-----7-----3--- 
PM     ...........................     ........... 


- ------------------------------------------------------------------------------------- 
- ------------------------------------------------------------------------------------- 
- ------------------------------------------------------------------------------------- 
- -7\----------------------------------------------------------------------7\---------- 
- -5\----------------------------------5---5---5---------7-----7-----7h8---5\---------- 
- -----0-0-0-0---------0-0---0-0-0-8-8---8---8---8-10-10----10----10-----------0-0-0-0- 
PM     ...............................   .   .   .......    ..    ..           ....... 
- ------------------------------------------------------------------------------------- 
- ------------------------------------------------------------------------------------- 
- ------------------------------------------------------------------------------------- 
- -7\----------------------------------------------------------------------5\---------- 
- -5\----------------------------------8---8---8---------10----10----10h12-7\---------- 
- -----0-0-0-0---------0-0---0-0-0-8-8---8---8---8-10-10----10----10-----------0-0-0-0- 
PM     ...............................   .   .   .......    ..    ..           .......  
    	
fixar
fixar inscrever-se

enviado porenviado por: sabrjoao
cifra enviadaCorrigida por: sem correções
logo top cifrasComente
ico música do artistaMúsicas deste artista
ico curtiuCurtiu?
ico destaqueDestaque
Petaxxon Comunicação Online

Cifras.com.br - Melhor e mais completo site de cifras e tablaturas do Brasil Mais de 1 milhão de acordes de músicas cadastradas desde 2003
As informações contidas no nosso site são colaborações de seus usuários e podem conter erros, sendo assim, não nos responsabilizamos sobre nenhuma destas.

close
menos
mais
close
Cor dos acordes:

Cor da letra:

close
Alinhar acordes a direita Alinhar acordes a esquerda Alinhar acordes em baixo Alinhar acordes no topo
close
  Mostrar todos os acordes Esconder acordes muito fáceis Esconder acordes fáceis Esconder acordes intermediários
redimensionar
glossário