Cifras e Tablaturas
Mitski

Mitski

Bury Me At Makeout Creek

Cifras Cancelar Versão de Impressão
cifras

Mitski - Bury Me At Makeout Creek

fixar na tela  
Exibindo: vídeo-aula ver clipes redimensionar
  

INTRO 

d |--------| 
A |--------| 
F#|--------| 
D |--------| 
A |--------| 
D |-0------| 

verse 1 

d |---------------------------|---------------------------| 
A |-----0-----7------4------4-|----0-----4------5---------| 
F#|-----0-----7------4------4-|----0-----4------5---------| 
D |---0-----7------4------4---|---0----4------5-----------| 
A |---------------------------|---------------------------| 
D |-0-----7------4------4-----|-0----4------5------5------| 

d |----------------------------------------------------| 
A |------0-----0----7------7-----5------5-----0-----0--| 
F#|------0-----0----7------7-----5------5-----0-----0--| 
D |---0-----0-----7-----7-----5------5------0-----0----| 
A |----------------------------------------------------| 
D |--0-----0-----7-----7-----5------5------0-----0-----| 

verse 2 

d |-------------------------------------------------| 
A |-----0-----7-----9-----4-----5-----7-----0-----0-| 
F#|-----0-----7-----9-----4-----5-----7-----0-----0-| 
D |---0-----7-----9-----4-----5-----7-----0-----0---| 
A |-------------------------------------------------| 
D |-0-----7-----9-----4-----5-----7-----0-----0-----| 

d |----------------------------------------------------| 
A |-----0-----0-----7------7------5------5-----5-----5-| 
F#|-----0-----0-----7------7------5------5-----5-----5-| 
D |---0-----0-----7------7------5------5-----5-----5---| 
A |----------------------------------------------------| 
D |-0-----0-----7------7------5------5-----5-----5-----| 

d |--------------------------------------------------| 
A |-----0-----7-----9-----9-----5-----7-----0------0-| 
F#|-----0-----7-----9-----9-----5-----7-----0------0-| 
D |---0-----7-----9-----9-----5-----7-----0------0---| 
A |--------------------------------------------------| 
D |-0-----7-----9-----9-----5-----7-----0------0-----| 

d |---------------------------------------| 
A |-----0-----4------5-----0------5-----7-| 
F#|-----0-----4------5-----0------5-----7-| 
D |---0-----4------5-----0------5-----7---| 
A |---------------------------------------| 
D |-0-----4------5-----0------5-----7-----| 

d |---------------------------------------------------| 
A |------0----0-----0-----0-----0-----0-----5------7--| 
F#|------0----0-----0-----0-----0-----0-----5------7--| 
D |---0-----0-----0-----0-----0-----0-----5------7----| 
A |---------------------------------------------------| 
D |-0-----0-----0-----0-----0-----0-----5------7------| 

verse 3 

DISTORTION 
                      x2 
d |-0-0-0-0-0-0-0-0-0-|| 
A |-0-0-0-0-0-0-0-0-0-|| 
F#|-0-0-0-0-0-0-0-0-0-|| 
D |-0-0-0-0-0-0-0-0-0-|| 
A |-0-0-0-0-0-0-0-0-0-|| 
D |-0-0-0-0-0-0-0-0-0-|| 

d |-0-0-0-------------------| 
A |-0-0-0-------------------| 
F#|-0-0-0-7-7-7-4-4-4-4-4-4-| 
D |-0-0-0-7-7-7-4-4-4-4-4-4-| 
A |-0-0-0-7-7-7-4-4-4-4-4-4-| 
D |-0-0-0-7-7-7-4-4-4-4-4-4-| 

d |-0-0-0-------------0-0-0-| 
A |-0-0-0-------------0-0-0-| 
F#|-0-0-0-4-4-4-5-5-5-0-0-0-| 
D |-0-0-0-4-4-4-5-5-5-0-0-0-| 
A |-0-0-0-4-4-4-5-5-5-0-0-0-| 
D |-0-0-0-4-4-4-5-5-5-0-0-0-| 

d |-0-0-0-------------0-0-0-| 
A |-0-0-0-------------0-0-0-| 
F#|-0-0-0-4-4-4-5-5-5-0-0-0-| 
D |-0-0-0-4-4-4-5-5-5-0-0-0-| 
A |-0-0-0-4-4-4-5-5-5-0-0-0-| 
D |-0-0-0-4-4-4-5-5-5-0-0-0-| 

d |-------------0-0-0-0-0-0-| 
A |-------------0-0-0-0-0-0-| 
F#|-5-5-5-7-7-7-0-0-0-0-0-0-| 
D |-5-5-5-7-7-7-0-0-0-0-0-0-| 
A |-5-5-5-7-7-7-0-0-0-0-0-0-| 
D |-5-5-5-7-7-7-0-0-0-0-0-0-| 

d |-------------0-0-0-0-0-0-| 
A |-------------0-0-0-0-0-0-| 
F#|-5-5-5-7-7-7-0-0-0-0-0-0-| 
D |-5-5-5-7-7-7-0-0-0-0-0-0-| 
A |-5-5-5-7-7-7-0-0-0-0-0-0-| 
D |-5-5-5-7-7-7-0-0-0-0-0-0-| 

d |-------------0-0-0-0-0-0-| 
A |-------------0-0-0-0-0-0-| 
F#|-------------0-0-0-0-0-0-| 
D |-5-----7-----0-0-0-0-0-0-| 
A |-5-----7-----0-0-0-0-0-0-| 
D |-5-----7-----0-0-0-0-0-0-| 

d |------------------------------------------| 
A |------------------------------------------| 
F#|-------------------------0-0-0-0----------| 
D |-9-9-9-4-4-4-5-5-5-7-7-7-0-0-0-0----------| 
A |-9-9-9-4-4-4-5-5-5-7-7-7-0-0-0-0----------| 
D |-9-9-9-4-4-4-5-5-5-7-7-7-0-0-0-0----------| 


-------------------------------------------------------- 
2. Townie 
--------------------------------------------------------- 

*NOTE* this song is usually half a step down live, so for the recorded version put a capo on first fret, or  
just play one half step higher. 

INTRO 
                              x2 
d |---------------------------|| 
A |---------------------------|| 
F#|---------------------------|| 
D |-10---10-10---10-10--10-10-|| 
A |-10---10-10---10-10--10-10-|| 
D |-10---10-10---10-10--10-10-|| 

verse 1 
                                                                         x2 
d |----------------------------------------------------------------------|| 
A |----------------------------------------------------------------------|| 
F#|----------------------------------------------------------------------|| 
D |-10---10-10--10-10---3---3-3---3-3--5---5-5---5-5--10---10-10---10-10-|| 
A |-10---10-10--10-10---3---3-3---3-3--5---5-5---5-5--10---10-10---10-10-|| 
D |-10---10-10--10-10---3---3-3---3-3--5---5-5---5-5--10---10-10---10-10-|| 

d |-----------------------------------------------------------------| 
A |-----------------------------------------------------------------| 
F#|-----------------------------------------------------------------| 
D |-10---10-10--10-10--3---3-3---3-3---5---5-5--5-5--6---6-6---6-6--| 
A |-10---10-10--10-10--3---3-3---3-3---5---5-5--5-5--6---6-6---6-6--| 
D |-10---10-10--10-10--3---3-3---3-3---5---5-5--5-5--6---6-6---6-6--| 

d |--------------------------------------------------------------| 
A |--------------------------------------------------------------| 
F#|--------------------------------------------------------------| 
D |-3---3-3---3-3--5---5-5---5-5--6---6-6---6-6---8---8-8---8-8--| 
A |-3---3-3---3-3--5---5-5---5-5--6---6-6---6-6---8---8-8---8-8--| 
D |-3---3-3---3-3--5---5-5---5-5--6---6-6---6-6---8---8-8---8-8--| 

Chorus 

(Guitar 1) 

d |----------------------------------------------------------------| 
A |----------------------------------------------------------------| 
F#|----------------------------------------------------------------| 
D |-3--3-3--3-3--5---5-5---5-5---10--10-10---10-10--7---7-7----7-7-| 
A |-3--3-3--3-3--5---5-5---5-5---10--10-10---10-10--7---7-7----7-7-| 
D |-3--3-3--3-3--5---5-5---5-5---10--10-10---10-10--7---7-7----7-7-| 

d |----------------------------------------------------------------| 
A |----------------------------------------------------------------| 
F#|----------------------------------------------------------------| 
D |-3--3-3---3-3--5---5-5--5-5-10---10-10----10-10---5---5-5---5-5-| 
A |-3--3-3---3-3--5---5-5--5-5-10---10-10----10-10---5---5-5---5-5-| 
D |-3--3-3---3-3--5---5-5--5-5-10---10-10----10-10---5---5-5---5-5-| 

d |--------------------------------------------------------| 
A |--------------------------------------------------------| 
F#|--------------------------------------------------------| 
D |-3---3-3---3-3--5--5-5---5-5-7---7-7---7-7-0---0-0--0-0-| 
A |-3---3-3---3-3--5--5-5---5-5-7---7-7---7-7-0---0-0--0-0-| 
D |-3---3-3---3-3--5--5-5---5-5-7---7-7---7-7-0---0-0--0-0-| 

d |------------------------------------------------------------------------------| 
A |------------------------------------------------------------------------------| 
F#|------------------------------------------------------------------------------| 
D |--3---3-3---3-3--5---5-5---5-5---10---10-10---10-10-10---10---10-10--10-10-10-| 
A |--3---3-3---3-3--5---5-5---5-5---10---10-10---10-10-10---10---10-10--10-10-10-| 
D |--3---3-3---3-3--5---5-5---5-5---10---10-10---10-10-10---10---10-10--10-10-10-| 

(Guitar 2) 

d |-7---5----7---9---7-------5---------7-------| 
A |--------------------------------------------| 
F#|--------------------------------------------| 
D |-7---5----7---9---7-------5---------7-------| 
A |--------------------------------------------| 
D |--------------------------------------------| 

d |-7---5----7---9-----5-----5--------------| 
A |-----------------------------------------| 
F#|-----------------------------------------| 
D |-7---5----7---9-----5-----5--------------| 
A |-----------------------------------------| 
D |-------------------------------*********-| 

d |-7---5----7---9------10-------7---------| 
A |----------------------------------------| 
F#|----------------------------------------| 
D |-7---5----7---9------10-------7---------| 
A |----------------------------------------| 
D |----------------------------------------| 

d |---------------------------------------------| 
A |--------------------------------------10-----| 
F#|-8////////////-6////-8////10-8-6-8/10--------| 
D |---------------------------------------------| 
A |---------------------------------------------| 
D |---------------------------------------------| 

verse 2 
                                                                         x2 
d |----------------------------------------------------------------------|| 
A |----------------------------------------------------------------------|| 
F#|----------------------------------------------------------------------|| 
D |-10---10-10--10-10---3---3-3---3-3--5---5-5---5-5--10---10-10---10-10-|| 
A |-10---10-10--10-10---3---3-3---3-3--5---5-5---5-5--10---10-10---10-10-|| 
D |-10---10-10--10-10---3---3-3---3-3--5---5-5---5-5--10---10-10---10-10-|| 

d |-----------------------------------------------------------------| 
A |-----------------------------------------------------------------| 
F#|-----------------------------------------------------------------| 
D |-10---10-10--10-10--3---3-3---3-3---5---5-5--5-5--6---6-6---6-6--| 
A |-10---10-10--10-10--3---3-3---3-3---5---5-5--5-5--6---6-6---6-6--| 
D |-10---10-10--10-10--3---3-3---3-3---5---5-5--5-5--6---6-6---6-6--| 

d |--------------------------------------------------------------| 
A |--------------------------------------------------------------| 
F#|--------------------------------------------------------------| 
D |-3---3-3---3-3--5---5-5---5-5--6---6-6---6-6---8---8-8---8-8--| 
A |-3---3-3---3-3--5---5-5---5-5--6---6-6---6-6---8---8-8---8-8--| 
D |-3---3-3---3-3--5---5-5---5-5--6---6-6---6-6---8---8-8---8-8--| 

Chorus 2 

d |----------------------------------------------------------------| 
A |----------------------------------------------------------------| 
F#|----------------------------------------------------------------| 
D |-3--3-3--3-3--5---5-5---5-5---10--10-10---10-10--7---7-7----7-7-| 
A |-3--3-3--3-3--5---5-5---5-5---10--10-10---10-10--7---7-7----7-7-| 
D |-3--3-3--3-3--5---5-5---5-5---10--10-10---10-10--7---7-7----7-7-| 

d |----------------------------------------------------------------| 
A |----------------------------------------------------------------| 
F#|----------------------------------------------------------------| 
D |-3--3-3---3-3--5---5-5--5-5-10---10-10----10-10---5---5-5---5-5-| 
A |-3--3-3---3-3--5---5-5--5-5-10---10-10----10-10---5---5-5---5-5-| 
D |-3--3-3---3-3--5---5-5--5-5-10---10-10----10-10---5---5-5---5-5-| 

d |--------------------------------------------------------| 
A |--------------------------------------------------------| 
F#|--------------------------------------------------------| 
D |-3---3-3---3-3--5--5-5---5-5-7---7-7---7-7-0---0-0--0-0-| 
A |-3---3-3---3-3--5--5-5---5-5-7---7-7---7-7-0---0-0--0-0-| 
D |-3---3-3---3-3--5--5-5---5-5-7---7-7---7-7-0---0-0--0-0-| 

d |------------------------------------------------------------------------------| 
A |------------------------------------------------------------------------------| 
F#|------------------------------------------------------------------------------| 
D |--3---3-3---3-3--5---5-5---5-5---10---10-10---10-10-10---10---10-10--10-10-10-| 
A |--3---3-3---3-3--5---5-5---5-5---10---10-10---10-10-10---10---10-10--10-10-10-| 
D |--3---3-3---3-3--5---5-5---5-5---10---10-10---10-10-10---10---10-10--10-10-10-| 

(Guitar 2) 

d |-7---5----7---9---5-------5---------7-------| 
A |--------------------------------------------| 
F#|--------------------------------------------| 
D |-7---5----7---9---5-------5---------7-------| 
A |--------------------------------------------| 
D |--------------------------------------------| 

d |-7---5----7---9-----5-----5--------------| 
A |-----------------------------------------| 
F#|-----------------------------------------| 
D |-7---5----7---9-----5-----5--------------| 
A |-----------------------------------------| 
D |-------------------------------*********-| 

d |-7---5----7---9------10-------7---------| 
A |----------------------------------------| 
F#|----------------------------------------| 
D |-7---5----7---9------10-------7---------| 
A |----------------------------------------| 
D |----------------------------------------| 

d |-------------------------------------------| 
A |-------------------------------------------| 
F#|-8888888888888888888888888/13~13~13~13~13--| 
D |-------------------------------------------| 
A |-------------------------------------------| 
D |-------------------------------------------| 

SOLO/Instrumental 

(Guitar 1) 

d |------------------------------------------------------------| 
A |------------------------------------------------------------| 
F#|------------------------------------------------------------| 
D |-3--3-3---3-3--5---5-5---5-5-10---10-10--10-10--7--7-7--7-7-| 
A |-3--3-3---3-3--5---5-5---5-5-10---10-10--10-10--7--7-7--7-7-| 
D |-3--3-3---3-3--5---5-5---5-5-10---10-10--10-10--7--7-7--7-7-| 

d |---------------------------------------------------------------| 
A |---------------------------------------------------------------| 
F#|---------------------------------------------------------------| 
D |-3--3-3---3-3--5---5-5---5-5-10---10-10---10-10--5---5-5---5-5-| 
A |-3--3-3---3-3--5---5-5---5-5-10---10-10---10-10--5---5-5---5-5-| 
D |-3--3-3---3-3--5---5-5---5-5-10---10-10---10-10--5---5-5---5-5-| 

d |-------------------------------------------------------------| 
A |-------------------------------------------------------------| 
F#|-------------------------------------------------------------| 
D |-3---3-3---3-3-5---5-5---5-5--7--7-7---7-7---0---0-0---0-0---| 
A |-3---3-3---3-3-5---5-5---5-5--7--7-7---7-7---0---0-0---0-0---| 
D |-3---3-3---3-3-5---5-5---5-5--7--7-7---7-7---0---0-0---0-0---| 

d |------------------------------| 
A |------------------------------| 
F#|------------------------------| 
D |-3---3-3---3-3-5---5-5---5-5--| 
A |-3---3-3---3-3-5---5-5---5-5--| 
D |-3---3-3---3-3-5---5-5---5-5--| 

(Guitar 2)  

d |-------------------------------------------------------------14--| 
A |-3--/-10--6-/-15-13--3/10-6-/15-13--3/10--6-13-11-7-15-13-11-----| 
F#|-----------------------------------------------------------------| 
D |-----------------------------------------------------------------| 
A |-----------------------------------------------------------------| 
D |-----------------------------------------------------------------| 

d |-----------------------------------------------------------| 
A |--3--/-10--6-/-15-13--3/10-6-/15-13--3/10--6-13-14-15------| 
F#|-----------------------------------------------------------| 
D |-----------------------------------------------------------| 
A |-----------------------------------------------------------| 
D  -----------------------------------------------------------| 

*NOTE: this solo may be played with a whammy pedal, in which case it should be play on the low A string, 
 with the pedal set to one octave up* 

Chorus 3 

d |----------------------------------------------------------------| 
A |----------------------------------------------------------------| 
F#|----------------------------------------------------------------| 
D |-3--3-3--3-3--5---5-5---5-5---10--10-10---10-10--7---7-7----7-7-| 
A |-3--3-3--3-3--5---5-5---5-5---10--10-10---10-10--7---7-7----7-7-| 
D |-3--3-3--3-3--5---5-5---5-5---10--10-10---10-10--7---7-7----7-7-| 

d |----------------------------------------------------------------| 
A |----------------------------------------------------------------| 
F#|----------------------------------------------------------------| 
D |-3--3-3---3-3--5---5-5--5-5-10---10-10----10-10---5---5-5---5-5-| 
A |-3--3-3---3-3--5---5-5--5-5-10---10-10----10-10---5---5-5---5-5-| 
D |-3--3-3---3-3--5---5-5--5-5-10---10-10----10-10---5---5-5---5-5-| 

d |--------------------------------------------------------| 
A |--------------------------------------------------------| 
F#|--------------------------------------------------------| 
D |-3---3-3---3-3--5--5-5---5-5-7---7-7---7-7-0---0-0--0-0-| 
A |-3---3-3---3-3--5--5-5---5-5-7---7-7---7-7-0---0-0--0-0-| 
D |-3---3-3---3-3--5--5-5---5-5-7---7-7---7-7-0---0-0--0-0-| 
                                                                                 x2 
d |------------------------------------------------------------------------------|| 
A |------------------------------------------------------------------------------|| 
F#|------------------------------------------------------------------------------|| 
D |--3---3-3---3-3--5---5-5---5-5---10---10-10---10-10-10---10---10-10--10-10-10-|| 
A |--3---3-3---3-3--5---5-5---5-5---10---10-10---10-10-10---10---10-10--10-10-10-|| 
D |--3---3-3---3-3--5---5-5---5-5---10---10-10---10-10-10---10---10-10--10-10-10-|| 

d |-----------------------------------------------------------------|| 
A |-----------------------------------------------------------------|| 
F#|-----------------------------------------------------------------|| 
D |--3---3-3---3-3--5---5-5---5-5---10-10-10-10-10-10-10-10-10------|| 
A |--3---3-3---3-3--5---5-5---5-5---10-10-10-10-10-10-10-10-10------|| 
D |--3---3-3---3-3--5---5-5---5-5---10-10-10-10-10-10-10-10-10------|| 

(Guitar 2) 

d |-7---5----7---9---5-------5---------7-------| 
A |--------------------------------------------| 
F#|--------------------------------------------| 
D |-7---5----7---9---5-------5---------7-------| 
A |--------------------------------------------| 
D |--------------------------------------------| 

d |-7---5----7---9-----5-----5--------------| 
A |-----------------------------------------| 
F#|-----------------------------------------| 
D |-7---5----7---9-----5-----5--------------| 
A |-----------------------------------------| 
D |-------------------------------*********-| 

d  -7---5----7---9------10-------7---------| 
A  ----------------------------------------| 
F# ----------------------------------------| 
D  -7---5----7---9------10-------7---------| 
A  ----------------------------------------| 
D  ----------------------------------------| 

d |-7---5----7---9---5-------5---------7-------| 
A |--------------------------------------------| 
F#|--------------------------------------------| 
D |-7---5----7---9---5-------5---------7-------| 
A |--------------------------------------------| 
D |--------------------------------------------| 

d |-7---5----7---9-----5-----5--------------| 
A |-----------------------------------------| 
F#|-----------------------------------------| 
D |-7---5----7---9-----5-----5--------------| 
A |-----------------------------------------| 
D |-------------------------------*********-| 


--------------------------------------------------------------------- 
3. First Love/Late Spring 
--------------------------------------------------------------------- 

INTRO 

Bass: 

G|------------------||----------------| 
D|------------------||----------------| 
A|-3---3---3-3-3p2--||-3---3---3-3-3--| 
D|------------------||----------------| 

VERSE 

Bass: 

G|-------------------------------------------------------------------|| 
D|-------------------------------------------------------------------|| 
A|-3---3---3-3-3-/-7---7---7-7-7-8---8---8-8-8---10---10---10--5---5-|| 
D|-------------------------------------------------------------------|| 

G|-------------------------------------------------------------------|| 
D|-------------------------------------------------------------------|| 
A|-3---3---3-3-3-/-7---7---7-7-7-8---8---8-8-8---10---10---10--10-11-|| 
D|-------------------------------------------------------------------|| 

Guitar:  
(Comes in after second bar of the verse) 

d |-----------------------------------------------------------------------|| 
A |-----------------------------------------------------------------------|| 
F#|-----------------------------------------------------------------------|| 
D |-10-10-10-10-10-10-10-10-2-2-2-2-2-2-2-2-3-3-3-3-3-3-3-3-5-5-5-5-5-0-0-|| 
A |-10-10-10-10-10-10-10-10-2-2-2-2-2-2-2-2-3-3-3-3-3-3-3-3-5-5-5-5-5-0-0-|| 
D |-10-10-10-10-10-10-10-10-2-2-2-2-2-2-2-2-3-3-3-3-3-3-3-3-5-5-5-5-5-0-0-|| 
    pm ------------------------------------------------------------------' 

d |-------------------------------------------------------------------------|| 
A |-------------------------------------------------------------------------|| 
F#|-------------------------------------------------------------------------|| 
D |-10-10-10-10-10-10-10-10-2-2-2-2-2-2-2-2-3-3-3-3-3-3-3-3-5-5-5-5-5-6-6-6-|| 
A |-10-10-10-10-10-10-10-10-2-2-2-2-2-2-2-2-3-3-3-3-3-3-3-3-5-5-5-5-5-6-6-6-|| 
D |-10-10-10-10-10-10-10-10-2-2-2-2-2-2-2-2-3-3-3-3-3-3-3-3-5-5-5-5-5-6-6-6-|| 
    pm ------------------------------------------------------------------' 

Pre-Chorus 

Bass: 

G|----------------------------------------------------------------------|| 
D|----------------------------------------------------------------------|| 
A|-12----12---12-12-12---7----7----7-7-7-8----8---8-8-8-5----5----5-5-5-|| 
D|----------------------------------------------------------------------|| 

Guitar: 

d |-------------------------------------------------------------------| 
A |-------------------------------------------------------------------| 
F#|-------------------------------------------------------------------| 
D |-7-7-7-7-7-7-7-7-7-2-2-2-2-2-2-2-2-3-3-3-3-3-3-3-3-0-0-0-0-0-0-0-0-| 
A |-7-7-7-7-7-7-7-7-7-2-2-2-2-2-2-2-2-3-3-3-3-3-3-3-3-0-0-0-0-0-0-0-0-| 
D |-7-7-7-7-7-7-7-7-7-2-2-2-2-2-2-2-2-3-3-3-3-3-3-3-3-0-0-0-0-0-0-0-0-| 
   pm----------------------------------------------------------------' 

Chorus 

Bass: 

G|-------------------------------------------------------------------|| 
D|-------------------------------------------------------------------|| 
A|-3---3---3-3-3-/-7---7---7-7-7-8---8---8-8-8---10---10---10--5---5-|| 
D|-------------------------------------------------------------------|| 

Guitar: 

d |-----------------------------------------------------------------------|| 
A |-----------------------------------------------------------------------|| 
F#|-----------------------------------------------------------------------|| 
D |-10-10-10-10-10-10-10-10-2-2-2-2-2-2-2-2-3-3-3-3-3-3-3-3-5-5-5-5-5-0-0-|| 
A |-10-10-10-10-10-10-10-10-2-2-2-2-2-2-2-2-3-3-3-3-3-3-3-3-5-5-5-5-5-0-0-|| 
D |-10-10-10-10-10-10-10-10-2-2-2-2-2-2-2-2-3-3-3-3-3-3-3-3-5-5-5-5-5-0-0-|| 

*NOTE: during live performances the guitarist plays in standard tuning, with open chords. 

(Chord progression: C, E, F, G ) 

Chorus OUTRO/Instrumental 

Bass: 

g|--------------------------|----------------------------------| 
D|--------------------------|----------------------------------| 
A|-3-----12-----7-----8-----|-3---3---3-3-3p2--3---3---3-3-3p2-| 
D|--------------------------|----------------------------------| 

g|-----------------------------------------------------| 
D|-----------------------------------------------------| 
A|-3---7-8-8-8---10---10---12-12-12-11---11-11-11---10-| 
D|-----------------------------------------------------| 

g|--------------------------------------------------------------------------| 
D|--------------------------------------------------------------------------| 
A|-3---7-8-8-8---10---10---12-12-12-11---11----11-11-11--10---10---10-10-10-| 
D|--------------------------------------------------------------------------| 

Guitar: 

d |-------------------------|---------------------------------------| 
A |-------------------------|---------------------------------------| 
F#|-------------------------|---------------------------------------| 
D |-10-----7-----2-----3----|-10-10-10-10-10-10-10-9-10-10-10-10-10-| 
A |-10-----7-----2-----3----|-10-10-10-10-10-10-10-9-10-10-10-10-10-| 
D |-10-----7-----2-----3----|-10-10-10-10-10-10-10-9-10-10-10-10-10-| 

d |-------------------------5-3-2-------------|| 
A |-----------3h5-5/7----5----------5-----5---|| 
F#|----2p3-5----------------------------------|| 
D |-2-----------------------------------------|| 
A |-------------------------------------------|| 
D |-------------------------------------------|| 

d |-------------------------5-3-2---------5-3-2----------| 
A |-----------3h5-5/7----5----------5-5---------5-5b-----| 
F#|----2p3-5---------------------------------------------| 
D |-2----------------------------------------------------| 
A |------------------------------------------------------| 
D |------------------------------------------------------| 

BRIDGE 

Bass: 

G|-------------------------------------------------------------------------| 
D|-------------------------------------------------------------------------| 
A|-8----8----8-8-8--3----3----3-3-3--10----10---10-10-10---3----3----3-3-3-| 
D|-------------------------------------------------------------------------| 

G|-----------------------------------------------------------------------------| 
D|-----------------------------------------------------------------------------| 
A|-8----8----8-8-8--3----3----3-3-3--10----10---10-10-10---11---11----11-11-11-| 
D|-----------------------------------------------------------------------------| 

G|--------------------------------------------------| 
D|--------------------------------------------------| 
A|-12-----7-----8-----15-----12----10----8-----3----| 
D|--------------------------------------------------| 

Chorus 

Bass: 

G|-------------------------------------------------------------------|| 
D|-------------------------------------------------------------------|| 
A|-3---3---3-3-3-/-7---7---7-7-7-8---8---8-8-8---10---10---10--5---5-|| 
D|-------------------------------------------------------------------|| 

Guitar: 

d |-----------------------------------------------------------------------|| 
A |-----------------------------------------------------------------------|| 
F#|-----------------------------------------------------------------------|| 
D |-10-10-10-10-10-10-10-10-2-2-2-2-2-2-2-2-3-3-3-3-3-3-3-3-5-5-5-5-5-0-0-|| 
A |-10-10-10-10-10-10-10-10-2-2-2-2-2-2-2-2-3-3-3-3-3-3-3-3-5-5-5-5-5-0-0-|| 
D |-10-10-10-10-10-10-10-10-2-2-2-2-2-2-2-2-3-3-3-3-3-3-3-3-5-5-5-5-5-0-0-|| 

Instrumental/SOLO 2 

Bass: 

G|-----------------------------------------------------------------|| 
D|-----------------------------------------------------------------|| 
A|-4---4---4-4-4-8----8----8-8-8-9----9----9-9-9-11----11---11-6-6-|| 
D|-----------------------------------------------------------------|| 

Guitar: 

An octave pedal is used here, so that a lower octave sounds under the original note.  
This can still be achieved by playing the same notes on the low D simultaneously. 

d |--------------------------------------------------------| 
A |--------------------------------------------------------| 
F#|--------------------------------------------------------| 
D |-11-----13-15--11-10--13-15-10--8-13--15-8--6-11-10-----| 
A |--------------------------------------------------------| 
D |--------------------------------------------------------| 

d |-------------------------------------------| 
A |-------------------------------------------| 
F#|-------------------------------------------| 
D |-----13-15--11-10--13-15-10--8-6\3---------| 
A |-------------------------------------------| 
D |-------------------------------------------| 

Chorus 

Bass: 

G|-------------------------------------------------------------------|| 
D|-------------------------------------------------------------------|| 
A|-3---3---3-3-3-/-7---7---7-7-7-8---8---8-8-8---10---10---10--5---5-|| 
D|-------------------------------------------------------------------|| 

G|-------------------------------------------------------------------|| 
D|-------------------------------------------------------------------|| 
A|-3---3---3-3-3-/-7---7---7-7-7-8---8---8-8-8---10------------------|| 
D|-------------------------------------------------------------------|| 

Guitar: 

d |--------------------------------------------------| 
A |--------------------------------------------------| 
F#|--------------------------------------------------| 
D |-2---3--5---9--7--5---3--7--5--3--2--5---3-7\5----| 
A |--------------------------------------------------| 
D |--------------------------------------------------| 

d |-----------------------------------|-----------------------x-x-x-x-| 
A |-----------------------------------|-----------------------x-x-x-x-| 
F#|-----------------------------------|-----------------------x-x-x-x-| 
D |-2---------------------------------|-----------------------x-x-x-x-| 
A |-----5-7--3-2--5-7-2--0------------|-----------------------x-x-x-x-| 
D |--------------------------5--------|-----------------------x-x-x-x-| 


--------------------------------------------------------------------- 
4. Francis Forever 
--------------------------------------------------------------------- 

INTRO 

Bass: 

G|-------------------------|| 
D|-------------------------|| 
A|-------------------------|| 
D|-12-12-12-12-12-12-12-12-|| 

VERSE 
                                    x3 
d |---------------------------------|| 
A |---------------------------------|| 
F#|---------------------------------|| 
D |-4-4-4-4-0-0-0-0-9-9-9-9-7-7-7-7-|| 
A |-4-4-4-4-0-0-0-0-9-9-9-9-7-7-7-7-|| 
D |-4-4-4-4-0-0-0-0-9-9-9-9-7-7-7-7-|| 

d |---------------------------------| 
A |---------------------------------| 
F#|---------------------------------| 
D |-0-0-0-0-4-4-5-5-7-7-7-7-0-0-0-0-| 
A |-0-0-0-0-4-4-5-5-7-7-7-7-0-0-0-0-| 
D |-0-0-0-0-4-4-5-5-7-7-7-7-0-0-0-0-| 

Chorus 

d |-----------------------------------------------------------------| 
A |-----------------------------------------------------------------| 
F#|-----------------------------------------------------------------| 
D |-5-5-5-5-7-7-7-7-0-0-4-4-5-5-5-5-5-5-5-5-7-7-7-7-0-0-0-0-4-4-4-4-| 
A |-5-5-5-5-7-7-7-7-0-0-4-4-5-5-5-5-5-5-5-5-7-7-7-7-0-0-0-0-4-4-4-4-| 
D |-5-5-5-5-7-7-7-7-0-0-4-4-5-5-5-5-5-5-5-5-7-7-7-7-0-0-0-0-4-4-4-4-| 

d |-------------------------------------------------| 
A |-------------------------------------------------| 
F#|-------------------------------------------------| 
D |-5-5-5-5-7-7-7-7-0-0-4-4-5-5-5-5-5-5-5-5-7-7-7-7-| 
A |-5-5-5-5-7-7-7-7-0-0-4-4-5-5-5-5-5-5-5-5-7-7-7-7-| 
D |-5-5-5-5-7-7-7-7-0-0-4-4-5-5-5-5-5-5-5-5-7-7-7-7-| 

d |-------------------------------------------------------------| 
A |-------------------------------------------------------------| 
F#|-------------------------------------------------------------| 
D |-4-4-0-0-4-4-0-0-5-5-5-5-0-0-0-0-9-9-0-0-9-9-0-0-7-7-7-7-0-0-| 
A |-4-4-0-0-4-4-0-0-5-5-5-5-0-0-0-0-9-9-0-0-9-9-0-0-7-7-7-7-0-0-| 
D |-4-4-0-0-4-4-0-0-5-5-5-5-0-0-0-0-9-9-0-0-9-9-0-0-7-7-7-7-0-0-| 

d |-------------------------------------------------------------------| 
A |-------------------------------------------------------------------| 
F#|-------------------------------------------------------------------| 
D |-4-4-4-4-0-0-4-4-0-0-5-5-5-5-0-0-0-0-9-9-0-0-9-9-0-0-7-7-7-7-7-7-7-| 
A |-4-4-4-4-0-0-4-4-0-0-5-5-5-5-0-0-0-0-9-9-0-0-9-9-0-0-7-7-7-7-7-7-7-| 
D |-4-4-4-4-0-0-4-4-0-0-5-5-5-5-0-0-0-0-9-9-0-0-9-9-0-0-7-7-7-7-7-7-7-| 

VERSE 
                                    x3 
d |---------------------------------|| 
A |---------------------------------|| 
F#|---------------------------------|| 
D |-4-4-4-4-0-0-0-0-9-9-9-9-7-7-7-7-|| 
A |-4-4-4-4-0-0-0-0-9-9-9-9-7-7-7-7-|| 
D |-4-4-4-4-0-0-0-0-9-9-9-9-7-7-7-7-|| 

d |---------------------------------| 
A |---------------------------------| 
F#|---------------------------------| 
D |-0-0-0-0-4-4-5-5-7-7-7-7-0-0-0-0-| 
A |-0-0-0-0-4-4-5-5-7-7-7-7-0-0-0-0-| 
D |-0-0-0-0-4-4-5-5-7-7-7-7-0-0-0-0-| 

Chorus 

d |-----------------------------------------------------------------| 
A |-----------------------------------------------------------------| 
F#|-----------------------------------------------------------------| 
D |-5-5-5-5-7-7-7-7-0-0-4-4-5-5-5-5-5-5-5-5-7-7-7-7-0-0-0-0-4-4-4-4-| 
A |-5-5-5-5-7-7-7-7-0-0-4-4-5-5-5-5-5-5-5-5-7-7-7-7-0-0-0-0-4-4-4-4-| 
D |-5-5-5-5-7-7-7-7-0-0-4-4-5-5-5-5-5-5-5-5-7-7-7-7-0-0-0-0-4-4-4-4-| 

d |-------------------------------------------------|-----------------| 
A |-------------------------------------------------|-----------------| 
F#|-------------------------------------------------|-----------------| 
D |-5-5-5-5-7-7-7-7-0-0-4-4-5-5-5-5-5-5-5-5-7-7-7-7-|-2-2-2-2-2-2-2-2-| 
A |-5-5-5-5-7-7-7-7-0-0-4-4-5-5-5-5-5-5-5-5-7-7-7-7-|-2-2-2-2-2-2-2-2-| 
D |-5-5-5-5-7-7-7-7-0-0-4-4-5-5-5-5-5-5-5-5-7-7-7-7-|-2-2-2-2-2-2-2-2-| 

d |-----------------------------------------------------------------| 
A |-----------------------------------------------------------------| 
F#|-----------------------------------------------------------------| 
D |-5-5-5---7-7-7---0-0-4-4-5-5-5-5-5-5-5-5-7-7-7-7-0-0-0-0-4-4-4-4-| 
A |-5-5-5---7-7-7---0-0-4-4-5-5-5-5-5-5-5-5-7-7-7-7-0-0-0-0-4-4-4-4-| 
D |-5-5-5---7-7-7---0-0-4-4-5-5-5-5-5-5-5-5-7-7-7-7-0-0-0-0-4-4-4-4-| 

d |-------------------------------------------------| 
A |-------------------------------------------------| 
F#|-------------------------------------------------| 
D |-5-5-5-5-7-7-7-7-0-0-4-4-5-5-5-5-5-5-5-5-7-7-7-7-| 
A |-5-5-5-5-7-7-7-7-0-0-4-4-5-5-5-5-5-5-5-5-7-7-7-7-| 
D |-5-5-5-5-7-7-7-7-0-0-4-4-5-5-5-5-5-5-5-5-7-7-7-7-| 

lead guitar  

*NOTE - a harmoniser pedal is used for this part. 
                                                                                                x2 
d |---------------------16\---------------------------------------------------------------------|| 
A |-14-14-14---16-16-16------12h14-12h14-12---12-12/14--14-14/16-16-16 16/17--17-17-17-17-17-17-|| 
F#|---------------------------------------------------------------------------------------------|| 
D |---------------------------------------------------------------------------------------------|| 
A |---------------------------------------------------------------------------------------------|| 
D |---------------------------------------------------------------------------------------------|| 

OUTRO 

d |-------------------------------------------------------------| 
A |-------------------------------------------------------------| 
F#|-------------------------------------------------------------| 
D |-4-4-0-0-4-4-0-0-5-5-5-5-0-0-0-0-9-9-0-0-9-9-0-0-7-7-7-7-0-0-| 
A |-4-4-0-0-4-4-0-0-5-5-5-5-0-0-0-0-9-9-0-0-9-9-0-0-7-7-7-7-0-0-| 
D |-4-4-0-0-4-4-0-0-5-5-5-5-0-0-0-0-9-9-0-0-9-9-0-0-7-7-7-7-0-0-| 

d |--------------------------------------------------------------------| 
A |--------------------------------------------------------------------| 
F#|--------------------------------------------------------------------| 
D |-4-4-4-4-0-0-4-4-0-0-5-5-5-5-0-0-0-0-9-9-0-0-9-9-0-0-7-7-7-7-0-0-0--| 
A |-4-4-4-4-0-0-4-4-0-0-5-5-5-5-0-0-0-0-9-9-0-0-9-9-0-0-7-7-7-7-0-0-0--| 
D |-4-4-4-4-0-0-4-4-0-0-5-5-5-5-0-0-0-0-9-9-0-0-9-9-0-0-7-7-7-7-0-0-0--| 

Lead guitar  

d |-19-19-19-19-19-19-19--14--16--14--16--14--16--14--16--14---| 
A |------------------------------------------------------------| 
F#|------------------------------------------------------------| 
D |------------------------------------------------------------| 
A |------------------------------------------------------------| 
D |------------------------------------------------------------| 

OUTRO PART 2 

Lots of guitar parts over each other here, with harmonisers. 

Lead guitar 1: 

d |16--16--14h16p14h16p14-|| 
A |-----------------------|| 
F#|-----------------------|| 
D |-----------------------|| 
A |-----------------------|| 
D |-----------------------|| 

Lead guitar 2: 

d |-------------------|| 
A |-9--9---7h9p7h9p7--|| 
F#|-------------------|| 
D |-------------------|| 
A |-------------------|| 
D |-------------------|| 

Lead guitar 3: 

(lower octave harmoniser) 

d |-----------------------------------------------------| 
A |-----------------------------------------------------| 
F#|----------8-10-10b12b10------------------------------| 
D |-------/9---------------9--7--7h9-7--4---2h4p2h4-----| 
A |-----------------------------------------------------| 
D |-----------------------------------------------------| 


---------------------------------------------- 
5. I Don't Smoke 
---------------------------------------------- 

*NOTE - this song is very grungey, with a lot of dissonant notes. when moving bewteen chords, drag your 
finger along to get that lazy sloppy sound.* 

INTRO/verse 1 

d |----------------------|| 
A |----------------------|| 
F#|----------------------|| 
D |-4-----6---3--4---\---|| 
A |-4-----6---3--4---\---|| 
D |-4-----6---3--4---\---|| 

Chorus 1 

d |---------------------------------------------------------------------------| 
A |---------------------------------------------------------------------------| 
F#|---------------------------------------------------------------------------| 
D |-4----6---3--4----1----3----4---6----4----6---8--10----13----6----6--6-8-\-| 
A |-4----6---3--4----1----3----4---6----4----6---8--10----13----6----6--6-8-\-| 
D |-4----6---3--4----1----3----4---6----4----6---8--10----13----6----6--6-8-\-| 

verse 2 

d |----------------------|| 
A |----------------------|| 
F#|----------------------|| 
D |-4-----6---3--4---\---|| 
A |-4-----6---3--4---\---|| 
D |-4-----6---3--4---\---|| 

Chorus 2 

Guitar 1: 

d |---------------------------------------------------------------------------| 
A |---------------------------------------------------------------------------| 
F#|---------------------------------------------------------------------------| 
D |-4----6---3--4----1----3----4---6----4----6---8--10----13----6----6--6-8-\-| 
A |-4----6---3--4----1----3----4---6----4----6---8--10----13----6----6--6-8-\-| 
D |-4----6---3--4----1----3----4---6----4----6---8--10----13----6----6--6-8-\-| 

Guitar 2: 

d |---------||--------------|-------|| 
A |---------||--------8-----|-------|| 
F#|5---5----||-5---5----5---|-5---5-|| 
D |---------||--------------|-------|| 
A |---------||--------------|-------|| 
D |---------||--------------|-------|| 

*Note - added higher octave by hitting the harmoniser pedal on and off again while on that note. 

LAST Chorus 

Guitar 1: 

d |---------------------------------------------------------------------------| 
A |---------------------------------------------------------------------------| 
F#|---------------------------------------------------------------------------| 
D |-4----6---3--4----1----3----4---6----4----6---8--10----13----6----6--6-8-\-| 
A |-4----6---3--4----1----3----4---6----4----6---8--10----13----6----6--6-8-\-| 
D |-4----6---3--4----1----3----4---6----4----6---8--10----13----6----6--6-8-\-| 

Guitar 2: 

d |------------|| 
A |------------|| 
F#|5//////////-|| 
D |------------|| 
A |------------|| 
D |------------|| 

Octave pedal hit a few times again but more sporadic this time. 

OUTRO 

d |----------------------| 
A |----------------------| 
F#|----------------------| 
D |-4-----6---3--4---\---| 
A |-4-----6---3--4---\---| 
D |-4-----6---3--4---\---| 


---------------------------------------------- 
6. Jobless Monday 
---------------------------------------------- 

INTRO 

Bass: 

G|-----------------------------| 
D|-----------------------------| 
A|-----------------------------| 
D|-10-10-12-10-3-3-3-3-8-8-7-7-| 

VERSE 

Guitar: 
                                        x3 
d |-------------------------------------|| 
A |-------------------------------------|| 
F#|-------------------------------------|| 
D |-3-3-3-3-7-7-7-7-8-8-8-8-10-10-10-10-|| 
A |-3-3-3-3-7-7-7-7-8-8-8-8-10-10-10-10-|| 
D |-3-3-3-3-7-7-7-7-8-8-8-8-10-10-10-10-|| 

d |---------------------------------|| 
A |---------------------------------|| 
F#|---------------------------------|| 
D |-3-3-3-3-7-7-7-7-8-8-10-10-------|| 
A |-3-3-3-3-7-7-7-7-8-8-10-10-------|| 
D |-3-3-3-3-7-7-7-7-8-8-10-10-------|| 

d |-------------------------------------|| 
A |-------------------------------------|| 
F#|-------------------------------------|| 
D |-3-3-3-3-7-7-7-7-8-8-8-8-11-11-10-10-|| 
A |-3-3-3-3-7-7-7-7-8-8-8-8-11-11-10-10-|| 
D |-3-3-3-3-7-7-7-7-8-8-8-8-11-11-10-10-|| 

                                        x3 
d |-------------------------------------|| 
A |-------------------------------------|| 
F#|-------------------------------------|| 
D |-3-3-3-3-7-7-7-7-8-8-8-8-10-10-10-10-|| 
A |-3-3-3-3-7-7-7-7-8-8-8-8-10-10-10-10-|| 
D |-3-3-3-3-7-7-7-7-8-8-8-8-10-10-10-10-|| 

d |---------------------------------|| 
A |---------------------------------|| 
F#|---------------------------------|| 
D |-3-3-3-3-7-7-7-7-8-8-10-10-------|| 
A |-3-3-3-3-7-7-7-7-8-8-10-10-------|| 
D |-3-3-3-3-7-7-7-7-8-8-10-10-------|| 

d |-------------------------------------|| 
A |-------------------------------------|| 
F#|-------------------------------------|| 
D |-3-3-3-3-7-7-7-7-8-8-8-8-11-11-10-10-|| 
A |-3-3-3-3-7-7-7-7-8-8-8-8-11-11-10-10-|| 
D |-3-3-3-3-7-7-7-7-8-8-8-8-11-11-10-10-|| 

Chorus 
                                        x3 
d |-------------------------------------|| 
A |-------------------------------------|| 
F#|-------------------------------------|| 
D |-3-3-3-3-7-7-7-7-8-8-8-8-10-10-10-10-|| 
A |-3-3-3-3-7-7-7-7-8-8-8-8-10-10-10-10-|| 
D |-3-3-3-3-7-7-7-7-8-8-8-8-10-10-10-10-|| 

d |-------------------------------------|| 
A |-------------------------------------|| 
F#|-------------------------------------|| 
D |-3-3-3-3-7-7-7-7-8-8-8-8-11-11-11-11-|| 
A |-3-3-3-3-7-7-7-7-8-8-8-8-11-11-11-11-|| 
D |-3-3-3-3-7-7-7-7-8-8-8-8-11-11-11-11-|| 

d |------------------------------------------------------|| 
A |------------------------------------------------------|| 
F#|------------------------------------------------------|| 
D |-3-3-3-3-7-7-7-7-8-8-10-10-11-11-11-11-11-11-11-11-11-|| 
A |-3-3-3-3-7-7-7-7-8-8-10-10-11-11-11-11-11-11-11-11-11-|| 
D |-3-3-3-3-7-7-7-7-8-8-10-10-11-11-11-11-11-11-11-11-11-|| 

STYLOPHONE SOLO 

Backing guitar: 

d |-------------------------------------|| 
A |-------------------------------------|| 
F#|-------------------------------------|| 
D |-3-3-3-3-7-7-7-7-8-8-8-8-10-10-10-10-|| 
A |-3-3-3-3-7-7-7-7-8-8-8-8-10-10-10-10-|| 
D |-3-3-3-3-7-7-7-7-8-8-8-8-10-10-10-10-|| 

d |-------------------------------------|| 
A |-------------------------------------|| 
F#|-------------------------------------|| 
D |-3-3-3-3-7-7-7-7-8-8-8-8-11-11-10-10-|| 
A |-3-3-3-3-7-7-7-7-8-8-8-8-11-11-10-10-|| 
D |-3-3-3-3-7-7-7-7-8-8-8-8-11-11-10-10-|| 

d |-------------------------------------|| 
A |-------------------------------------|| 
F#|-------------------------------------|| 
D |-3-3-3-3-7-7-7-7-8-8-8-8-11-11-11-11-|| 
A |-3-3-3-3-7-7-7-7-8-8-8-8-11-11-11-11-|| 
D |-3-3-3-3-7-7-7-7-8-8-8-8-11-11-11-11-|| 

Stylophone: 

d |------------------------------------------------------| 
A |------------------------------------------------------| 
F#|----4-3-----4p3-------------6---4-0--1--4---3---------| 
D |-2h3----2h3-----0h3----0h3---------------------2---3--| 
A |------------------------------------------------------| 
D |------------------------------------------------------| 

d |------------------------------------------------------| 
A |------------------------------------------------------| 
F#|----4-3-----4p3-------------6---4-0--1--4---6---7-----| 
D |--------2h3-----0h3----0h3----------------------------| 
A |------------------------------------------------------| 
D |------------------------------------------------------| 

LAST Chorus 

Backing guitar: 

d |-------------------------------------|| 
A |-------------------------------------|| 
F#|-------------------------------------|| 
D |-4-4-4-4-8-8-8-8-9-9-9-9-11-11-11-11-|| 
A |-4-4-4-4-8-8-8-8-9-9-9-9-11-11-11-11-|| 
D |-4-4-4-4-8-8-8-8-9-9-9-9-11-11-11-11-|| 

d |-------------------------------------|| 
A |-------------------------------------|| 
F#|-------------------------------------|| 
D |-4-4-4-4-8-8-8-8-9-9-9-9-12-12-12-12-|| 
A |-4-4-4-4-8-8-8-8-9-9-9-9-12-12-12-12-|| 
D |-4-4-4-4-8-8-8-8-9-9-9-9-12-12-12-12-|| 

d |-------------------------------------|| 
A |-------------------------------------|| 
F#|-------------------------------------|| 
D |-4-4-4-4-8-8-8-8-9-9-9-9-11-11-11-11-|| 
A |-4-4-4-4-8-8-8-8-9-9-9-9-11-11-11-11-|| 
D |-4-4-4-4-8-8-8-8-9-9-9-9-11-11-11-11-|| 

d |-------------------------------------|| 
A |-------------------------------------|| 
F#|-------------------------------------|| 
D |-4-4-4-4-8-8-8-8-9-9-9-9-4-----------|| 
A |-4-4-4-4-8-8-8-8-9-9-9-9-4-----------|| 
D |-4-4-4-4-8-8-8-8-9-9-9-9-4-----------|| 

Stylophone lead: 

d |---------------------------------------------------||-----------| 
A |---------------------------------------------------||-----------| 
F#|-----5--4------5-4------------7--5-1-2--5--4-------||-5----4----| 
D |-----------3h4-----1-4---1-4------------------3--4-||-----------| 
A |---------------------------------------------------||-----------| 
D |---------------------------------------------------||-----------| 


---------------------------------------------- 
7. Drunk Walk Home 
---------------------------------------------- 

d |---------------------------------------------------------------| 
A |---------------------------------------------------------------| 
F#|-/10~~10-10-10~~10-9-9~~9\-7~~~~------7------------------------| 
D |-----------------------------------6----9~~~9~~6-7~~6~~~~~~----| 
A |---------------------------------------------------------------| 
D |---------------------------------------------------------------| 

d |-----------------------------------------------------------------------------------------------------| 
A |------------------------------------------------------------------------------19---------------------| 
F#|-10--10-10~~~10-10-10-10-~~-10/14~~14~~~---14~~14-14~~14-14-14-14-14/17~~17~~----15~~15-15-14-14~~~--| 
D |-----------------------------------------------------------------------------------------------------| 
A |-----------------------------------------------------------------------------------------------------| 
D |-----------------------------------------------------------------------------------------------------| 

d |-----------------------------| 
A |-----------------------------| 
F#|-14--12~~~12-12\-10-10~~~~~--| 
D |-----------------------------| 
A |-----------------------------| 
D |-----------------------------| 

verse 2 

Lead guitar: 

d |------------------------------------------------------------------------------------| 
A |------------------------------------------------------------------------------------| 
F#|-10-10-10-10-10---9--9--9--7--7----7--7--7--7--7----7--7--7--5--5----5--5--5--5--5--| 
D |-X--X--X--X--X----X--X--X--X--X----X--X--X--X--X----X--X--X--X--X----X--X--X--X--X--| 
A |-7--7--7--7--7----6--6--6--4--4----4--4--4--4--4----4--4--4--2--2----2--2--2--2--2--| 
D |------------------------------------------------------------------------------------| 

d |---------------------------------------------------------------------------------| 
A |---------------------------------------------------------------------------------| 
F#|-5--5--5--5--5----6--6--6--7--7---7--7--7--7--7---7--7--7--7--7---9--9--9--9--9--| 
D |-X--X--X--X--X----X--X--X--X--X---X--X--X--X--X---X--X--X--X--X---X--X--X--X--X--| 
A |-2--2--2--2--2----3--3--3--4--4---4--4--4--4--4---4--4--4--4--4---6--6--6--6--6--| 
D |---------------------------------------------------------------------------------| 

d |-----------------------------------------------------------------------------------| 
A |-----------------------------------------------------------------------------------| 
F#|-9--9--9--9--9----9--9--9--9--9---7--7--7--7--7----7--7--7--7--7---7--7--7--7--7---| 
D |-X--X--X--X--X----X--X--X--X--X---X--X--X--X--X----X--X--X--X--X---X--X--X--X--X---| 
A |-6--6--6--6--6----6--6--6--6--6---4--4--4--4--4----4--4--4--4--4---4--4--4--4--4---| 
D |-----------------------------------------------------------------------------------| 

d |-----------------------------------------------------------------------------------| 
A |-----------------------------------------------------------------------------------| 
F#|-6--6--6--6--6----6--6--6--6--6---6--6--6--5--5---5--5--5--5--5---5--5--5--5--5----| 
D |-X--X--X--X--X----X--X--X--X--X---X--X--X--X--X---X--X--X--X--X---X--X--X--X--X----| 
A |-3--3--3--3--3----3--3--3--3--3---3--3--3--2--2---2--2--2--2--2---2--2--2--2--2----| 
D |-----------------------------------------------------------------------------------| 

d |---------------|| 
A |---------------|| 
F#|-5--5--5--5--5-|| 
D |-x--x--x--x--x-|| 
A |-2--2--2--2--2-|| 
D |---------------|| 

Rhythm guitar: 

d |------------------------------------------------------------------------------------| 
A |------------------------------------------------------------------------------------| 
F#|------------------------------------------------------------------------------------| 
D |-2-2-2-2-2---6-6-6-7-7---7-7-7-7-7----7-7-7-9-9--2-2-2-2-2----2-2-2-2-2---2-2-2-2-2-| 
A |-2-2-2-2-2---6-6-6-7-7---7-7-7-7-7----7-7-7-9-9--2-2-2-2-2----2-2-2-2-2---2-2-2-2-2-| 
D |-2-2-2-2-2---6-6-6-7-7---7-7-7-7-7----7-7-7-9-9--2-2-2-2-2----2-2-2-2-2---2-2-2-2-2-| 

d |-----------------------------------------------------------------------------------| 
A |-----------------------------------------------------------------------------------| 
F#|-----------------------------------------------------------------------------------| 
D |-6-6-6-7-7---7-7-7-7-7----7-7-7-7-7---9-9-9-10-10--10-10-10-11-11---11-11-11-11-11-| 
A |-6-6-6-7-7---7-7-7-7-7----7-7-7-7-7---9-9-9-10-10--10-10-10-11-11---11-11-11-11-11-| 
D |-6-6-6-7-7---7-7-7-7-7----7-7-7-7-7---9-9-9-10-10--10-10-10-11-11---11-11-11-11-11-| 

d |------------------------------------------------------------------------------------| 
A |------------------------------------------------------------------------------------| 
F#|------------------------------------------------------------------------------------| 
D |-6-6-6-6-6---7-7-7-7-7---4-4-4-4-4----4-4-4-4-4---4-4-4-4-4---3-3-3-3-3---3-3-3-3-3-| 
A |-6-6-6-6-6---7-7-7-7-7---4-4-4-4-4----4-4-4-4-4---4-4-4-4-4---3-3-3-3-3---3-3-3-3-3-| 
D |-6-6-6-6-6---7-7-7-7-7---4-4-4-4-4----4-4-4-4-4---4-4-4-4-4---3-3-3-3-3---3-3-3-3-3-| 

Repeat again until the end. 

---------------------------------------------- 
8. I Will 
---------------------------------------------- 

INTRO 

Bass: 

G|-------------------------------------------------------------------------| 
D|-------------------------------------------------------------------------| 
A|-------------------------------------------------------------------------| 
D|-5-5-5-5-5-5-5-5-9-9-9-9-9-9-9-9-7-7-7-7-7-7-7-7-12-12-12-12-12-12-12-12-| 

G|-----------------------------------------------------------------| 
D|-----------------------------------------------------------------| 
A|-----------------------------------------------------------------| 
D|-5-5-5-5-5-5-5-5-9-9-9-9-9-9-9-9-7-7-7-7-7-7-7-7-0-0-0-0-0-0-0-0-| 

VERSE 

G|-------------------------------------------------------------------------| 
D|-------------------------------------------------------------------------| 
A|-------------------------------------------------------------------------| 
D|-5-5-5-5-5-5-5-5-9-9-9-9-9-9-9-9-7-7-7-7-7-7-7-7-12-12-12-12-12-12-12-12-| 

G|-----------------------------------------------------------------| 
D|-----------------------------------------------------------------| 
A|-----------------------------------------------------------------| 
D|-5-5-5-5-5-5-5-5-9-9-9-9-9-9-9-9-7-7-7-7-7-7-7-7-0-0-0-0-0-0-0-0-| 

G|-------------------------------------------------------------------------| 
D|-------------------------------------------------------------------------| 
A|-------------------------------------------------------------------------| 
D|-5-5-5-5-5-5-5-5-9-9-9-9-9-9-9-9-7-7-7-7-7-7-7-7-12-12-12-12-11-11-11-11-| 

G|-----------------------------------------------------------------| 
D|-----------------------------------------------------------------| 
A|-----------------------------------------------------------------| 
D|-9-9-9-9-9-9-9-9-5-5-5-5-5-5-5-5-7-7-7-7-7-7-7-7-0-0-0-0-0-0-0-0-| 

Instrumental/BREAK 
                                                                           x2 
G|-------------------------------------------------------------------------|| 
D|-------------------------------------------------------------------------|| 
A|-------------------------------------------------------------------------|| 
D|-5-5-5-5-5-5-5-5-9-9-9-9-9-9-9-9-7-7-7-7-7-7-7-7-12-12-12-12-12-12-12-12-|| 

Chorus 

G|-----------------------------------------------------------------|| 
D|-----------------------------------------------------------------|| 
A|-----------------------------------------------------------------|| 
D|-0-0-0-0-0-0-0-0-2-2-2-2-2-2-2-2-9-9-9-9-9-9-9-9-5-5-5-5-5-5-5-5-|| 

G|-----------------------------------------------------------------|| 
D|-----------------------------------------------------------------|| 
A|-----------------------------------------------------------------|| 
D|-0-0-0-0-0-0-0-0-2-2-2-2-2-2-2-2-9-9-9-9-9-9-9-9-7-7-7-7-7-7-7-7-|| 

*NOTE - when live, the Chorus is often played like this: 

G|-----------------------------------------------------------------|| 
D|-----------------------------------------------------------------|| 
A|-----------------------------------------------------------------|| 
D|-0-0-0-0-0-0-0-0-5-5-5-5-5-5-5-5-9-9-9-9-9-9-9-9-7-7-7-7-7-7-7-7-|| 

verse 2 

G|-------------------------------------------------------------------------| 
D|-------------------------------------------------------------------------| 
A|-------------------------------------------------------------------------| 
D|-5-5-5-5-5-5-5-5-9-9-9-9-9-9-9-9-7-7-7-7-7-7-7-7-12-12-12-12-12-12-12-12-| 

G|-----------------------------------------------------------------| 
D|-----------------------------------------------------------------| 
A|-----------------------------------------------------------------| 
D|-5-5-5-5-5-5-5-5-9-9-9-9-9-9-9-9-7-7-7-7-7-7-7-7-0-0-0-0-0-0-0-0-| 

G|-------------------------------------------------------------------------| 
D|-------------------------------------------------------------------------| 
A|-------------------------------------------------------------------------| 
D|-5-5-5-5-5-5-5-5-9-9-9-9-9-9-9-9-7-7-7-7-7-7-7-7-12-12-12-12-11-11-11-11-| 

G|-----------------------------------------------------------------| 
D|-----------------------------------------------------------------| 
A|-----------------------------------------------------------------| 
D|-9-9-9-9-9-9-9-9-5-5-5-5-5-5-5-5-7-7-7-7-7-7-7-7-0-0-0-0-0-0-0-0-| 

BRIDGE 

G|-----------------------------------------------------------------| 
D|-----------------------------------------------------------------| 
A|-----------------------------------------------------------------| 
D|-7-7-7-7-7-7-7-7-7-7-7-7-7-7-7-7-7-7-7-7-7-7-7-7-7-7-7-7-7-7-7-7-| 

G|-----------------------------------------------------------------| 
D|-----------------------------------------------------------------| 
A|-----------------------------------------------------------------| 
D|-5-5-5-5-5-5-5-5-5-5-5-5-5-5-5-5-5-5-5-5-5-5-5-5-5-5-5-5-5-5-5-5-| 

G|-----------------------------------------------------------------| 
D|-----------------------------------------------------------------| 
A|-----------------------------------------------------------------| 
D|-5-5-5-5-5-5-5-5-5-5-5-5-5-5-5-5-5-5-5-5-5-5-5-5-5-5-5-5-5-5-5-5-| 

G|------------------------------------------------------------------| 
D|------------------------------------------------------------------| 
A|------------------------------------------------------------------| 
D|-2-2-2-2-2-2-2-2-2-2-2-2-2-2-2-2-0-0-0-0-0-0-0-0-0-0-0-0-0-0-0-0-0-| 
  
G|-------------------------------------| 
D|-------------------------------------| 
A|-------------------------------------| 
D|-5-5-5-5-5-5-5-7-7-7-7-7-7-7-0-0-0-0-| 

Chorus 

G|-----------------------------------------------------------------|| 
D|-----------------------------------------------------------------|| 
A|-----------------------------------------------------------------|| 
D|-0-0-0-0-0-0-0-0-2-2-2-2-2-2-2-2-9-9-9-9-9-9-9-9-5-5-5-5-5-5-5-5-|| 

G|-----------------------------------------------------------------|| 
D|-----------------------------------------------------------------|| 
A|-----------------------------------------------------------------|| 
D|-0-0-0-0-0-0-0-0-2-2-2-2-2-2-2-2-9-9-9-9-9-9-9-9-7-7-7-7-7-7-7-7-|| 

OUTRO 

G|-----------------------------------------------------------------| 
D|-----------------------------------------------------------------| 
A|-----------------------------------------------------------------| 
D|-5-5-5-5-5-5-5-5-9-9-9-9-9-9-9-9-7-7-7-7-7-7-7-7-0-0-0-0-0-------| 


---------------------------------------------- 
9. Carry Me Out 
---------------------------------------------- 

*NOTE - This seems to be the only song in standard tuning in this record. While there are two guitar parts  
in the intro and verse, these can be easily combined. 

INTRO 

Guitar 1: 

e|---------------------------------------| 
B|---------------------------------------| 
G|---------------------------------------| 
D|---------------------------------------| 
A|---------------------------------------| 
E|-3----------3--------3-------5-------0-| 

e|---------------------------------------| 
B|---------------------------------------| 
G|---------------------------------------| 
D|---------------------------------------| 
A|---------------------------------------| 
E|-3----------3--------3-------5---------| 

Guitar 2: 

e|-------5-------------------------| 
B|-------5------0------------------| 
G|-------7------0-----4------------| 
D|--2/-5-5------5-----2-----2------| 
A|--------------7-----3-----0------| 
E|------------------------------0--| 

e|-------5------------2----0---0------| 
B|-------5------0-----3--------0---3--| 
G|-------7------0-----2--------x------| 
D|--2/-5-5------5-----x--------2------| 
A|--------------7-----3---------------| 
E|------------------------------0-----| 

VERSE 

Guitar 1: 
                                     x2 
e|-----------------------------------|| 
B|-----------------------------------|| 
G|-----------------------------------|| 
D|-----------------------------------|| 
A|---------0---------------0---------|| 
E|-3---------------3-----------------|| 

e|----------------------------------| 
B|----------------------------------| 
G|----------------------------------| 
D|----------------------------------| 
A|---------0--------2-------3----3--| 
E|-3--------------------------------| 

e|-----------------------------------| 
B|-----------------------------------| 
G|-----------------------------------| 
D|-----------------------------------| 
A|---------3---------------0---------| 
E|-0----------------0------------3---| 

Guitar 2: 

e|------------------------------0------| 
B|------3-----------------3-----3---3--| 
G|------0-----------------0-----X------| 
D|------4-------5---------4-----2------| 
A|------2-------7---------2------------| 
E|------3-----------------3------------| 

e|------------------------------7------| 
B|------3-----------------3-----5------| 
G|------0-----------------0-----5------| 
D|------4-------5---------4-----7------| 
A|------2-------7---------2------------| 
E|------3-----------------3------------| 

e|-------------------------------------| 
B|------3-----------------3------------| 
G|------0-----------------0------------| 
D|------4-------5---------4------------| 
A|------2-------7---------2-----3------| 
E|------3-----------------3------------| 

e|--------------0----5--------------| 
B|-------0------0----7---7--8-----0-| 
G|-------0------0----7------------0-| 
D|-----2--------5----7------------0-| 
A|--------------7-----------------2-| 
E|----------------------------------| 

Chorus 1 

Bass: 

G|-----------------------------------------------------------------------| 
D|-----------------------------------------------------------------------| 
A|---------3--3--3--7--7--7--5--5--5----------------------------5--5--5--| 
E|3--3--3-----------------------------5--5--5--8--8--8--3--3--3----------| 

G|-------------------------------------------------------------------------------| 
D|-------------------------------------------------------------------------------| 
A|---------3--3--3--7--7--7--5--5--5-------------------3--3--3--5--5--5----------| 
E|3--3--3-----------------------------5--5--5--8--8--8------------------3--3--3--| 

Instrumental/GUITAR BREAK 

Lead guitar: 

e|-----3-2-0--------------------2----2-----3\-----| 
B|-0-3-------0h3--1------1--0--------------3\--1--| 
G|------------------0--2------2-------------------| 
D|------------------------------------------------| 
A|------------------------------------------------| 
E|------------------------------------------------| 

Bass: 
                           x2 
G|-------------------------|| 
D|-------------------------|| 
A|-------5-5-5-------7-7-7-|| 
E|-3-3-3-------5-5-5-------|| 

verse 2 

Bass: 
                           x4 
G|-------------------------|| 
D|-------------------------|| 
A|-------5-5-5-------7-7-7-|| 
E|-3-3-3-------5-5-5-------|| 

Keyboard chords: 

G D Am Em x4 

Chorus 2 

Guitar: 

e|----------------------------------------------------------------| 
B|----------------------------------------------------------------| 
G|----------------------------------------------------------------| 
D|-5-5-5-10-10-10-14-14-14-12-12-12-7-7-7-10-10-10-5-5-5-12-12-12-| 
A|-5-5-5-10-10-10-14-14-14-12-12-12-7-7-7-10-10-10-5-5-5-12-12-12-| 
E|-3-3-3-8--8--8--12-12-12-10-10-10-5-5-5-8--8--8--3-3-3-10-10-10-| 

e|--------------------------------------------------------------| 
B|--------------------------------------------------------------| 
G|--------------------------------------------------------------| 
D|-5-5-5-10-10-10-14-14-14-12-12-12-7-7-7-10-10-10-5-5-5-5-5-5--| 
A|-5-5-5-10-10-10-14-14-14-12-12-12-7-7-7-10-10-10-5-5-5-5-5-5--| 
E|-3-3-3-8--8--8--12-12-12-10-10-10-5-5-5-8--8--8--3-3-3-3-3-3--| 

SOLO/GUITAR BREAK 2 

Lead guitar: 

e|-----3-2--3---2--0---2-2-0-------------| 
B|---0---------------1-------1-0---12~~~-| 
G|-0-------------------------------------| 
D|-0-------------------------------------| 
A|---------------------------------------| 
E|---------------------------------------| 

e|-----3-2--3///////5/////3//2///0/////2////0/////2////////////////////////| 
B|---0---------------------------------------------------------------------| 
G|-0-----------------------------------------------------------------------| 
D|-0-----------------------------------------------------------------------| 
A|-------------------------------------------------------------------------| 
E|-------------------------------------------------------------------------| 

Rhythm guitar: 

e|----------------------------------------------------------------| 
B|----------------------------------------------------------------| 
G|----------------------------------------------------------------| 
D|-5-5-5-10-10-10-14-14-14-12-12-12-7-7-7-10-10-10-5-5-5-12-12-12-| 
A|-5-5-5-10-10-10-14-14-14-12-12-12-7-7-7-10-10-10-5-5-5-12-12-12-| 
E|-3-3-3-8--8--8--12-12-12-10-10-10-5-5-5-8--8--8--3-3-3-10-10-10-| 

e|--------------------------------------------------------------| 
B|--------------------------------------------------------------| 
G|--------------------------------------------------------------| 
D|-5-5-5-10-10-10-14-14-14-12-12-12-7-7-7-10-10-10-5-5-5-5-5-5--| 
A|-5-5-5-10-10-10-14-14-14-12-12-12-7-7-7-10-10-10-5-5-5-5-5-5--| 
E|-3-3-3-8--8--8--12-12-12-10-10-10-5-5-5-8--8--8--3-3-3-3-3-3--| 

e|-------------------------|| 
B|-------------------------|| 
G|-------------------7-7-7-|| 
D|-5-5-5-5-5-5-2-2-2-7-7-7-|| 
A|-5-5-5-5-5-5-2-2-2-5-5-5-|| 
E|-3-3-3-2-2-2-0-0-0-------|| 


---------------------------------------------- 
10. Last Words Of A Shooting Star 
---------------------------------------------- 

INTRO 

(Finger picking) 

d |--------------------------|| 
A |-----0-----0-----0-----0--|| 
F#|-----0-----0-----0--------|| 
D |---0-----0-----0-----0----|| 
A |---0-----0-----0-----0----|| 
D |-0-----0-----0-----0------|| 

VERSE 

d |-------------------------------------------------| 
A |-----0-----0-----4-----4-----5-----5-----7-----7-| 
F#|-----0-----0-----4-----4-----5-----5-----7-----7-| 
D |---0-----0-----4-----4-----5-----5-----7-----7---| 
A |---0-----0-----4-----4-----5-----5-----7-----7---| 
D |-0-----0-----4-----4-----5-----5-----7-----7-----| 

d |-----------------------------------------------------| 
A |-----0-----0-----4----4-----5-----5------7-----0-----| 
F#|-----0-----0-----4----4-----5-----5------7-----0-----| 
D |---0-----0-----4----4-----5-----5------7-----0-------| 
A |---0-----0-----4----4-----5-----5------7-----0-------| 
D |-0-----0-----4----4-----5-----5------7-----0---------| 

Chorus 

d |-----------------------------------------------------| 
A |-----5-----5-----4-----4-----2-----2-----------------| 
F#|-----5-----5-----4-----4-----2-----2-----1-----1-----| 
D |---5-----5-----4-----4-----2-----2-----1-----1-------| 
A |---5-----5-----4-----4-----2-----2-----1-----1-------| 
D |-5-----5-----4-----4-----2-----2-----1-----1---------| 

d |---------------------------------------------| 
A |-----5----5----9-----9-----5-----5-----7-----| 
F#|-----5----5----9-----9-----5-----5-----7-----| 
D |---5----5----9-----9-----5-----5-----7-------| 
A |---5----5----9-----9-----5-----5-----7-------| 
D |-5----5----9-----9-----5-----5-----7---------| 
                             x6 
d |--------------------------|| 
A |-----0-----0-----0-----0--|| 
F#|-----0-----0-----0-----0--|| 
D |---0-----0-----0-----0----|| 
A |---0-----0-----0-----0----|| 
D |-0-----0-----0-----0------|| 

verse 2 

d |-------------------------------------------------| 
A |-----0-----0-----4-----4-----5-----5-----7-----7-| 
F#|-----0-----0-----4-----4-----5-----5-----7-----7-| 
D |---0-----0-----4-----4-----5-----5-----7-----7---| 
A |---0-----0-----4-----4-----5-----5-----7-----7---| 
D |-0-----0-----4-----4-----5-----5-----7-----7-----| 

d |-----------------------------------------------------| 
A |-----0-----0-----4----4-----5-----5------7-----0-----| 
F#|-----0-----0-----4----4-----5-----5------7-----0-----| 
D |---0-----0-----4----4-----5-----5------7-----0-------| 
A |---0-----0-----4----4-----5-----5------7-----0-------| 
D |-0-----0-----4----4-----5-----5------7-----0---------| 

Chorus 2: 

d |-----------------------------------------------------| 
A |-----5-----5-----4-----4-----2-----2-----------------| 
F#|-----5-----5-----4-----4-----2-----2-----1-----1-----| 
D |---5-----5-----4-----4-----2-----2-----1-----1-------| 
A |---5-----5-----4-----4-----2-----2-----1-----1-------| 
D |-5-----5-----4-----4-----2-----2-----1-----1---------| 

d |---------------------------------------------| 
A |-----5----5----9-----9-----5-----5-----7-----| 
F#|-----5----5----9-----9-----5-----5-----7-----| 
D |---5----5----9-----9-----5-----5-----7-------| 
A |---5----5----9-----9-----5-----5-----7-------| 
D |-5----5----9-----9-----5-----5-----7---------| 

                             x8 
d |--------------------------|| 
A |-----0-----0-----0-----0--|| 
F#|-----0-----0-----0-----0--|| 
D |---0-----0-----0-----0----|| 
A |---0-----0-----0-----0----|| 
D |-0-----0-----0-----0------|| 

LAST VERSE 

d |-0-------4-----5-----0-----7------| 
A |-0-------4-----5-----0-----7------| 
F#|-0-------4-----5-----0-----7------| 
D |-0-------4-----5-----0-----7------| 
A |-0-------4-----5-----0-----7------| 
D |-0-------4-----5-----0-----7------| 

d |-0-------4-------5------7-----0----| 
A |-0-------4-------5------7-----0----| 
F#|-0-------4-------5------7-----0----| 
D |-0-------4-------5------7-----0----| 
A |-0-------4-------5------7-----0----| 
D |-0-------4-------5------7-----0----| 

LAST Chorus/OUTRO 

d |-----------------------------------------------------------| 
A |-----5-----5-----4-----4-----2-----2-----------------0-----| 
F#|-----5-----5-----4-----4-----2-----2-----1-----1-----0-----| 
D |---5-----5-----4-----4-----2-----2-----1-----1-------0-----| 
A |---5-----5-----4-----4-----2-----2-----1-----1-------0-----| 
D |-5-----5-----4-----4-----2-----2-----1-----1---------0-----| 

Enjoy :D 


*LEGEND* 

*****   string scratch 
/       slide up 
\       slide down 
h       hammer on 
p       pull off 
/////   tremolo picking 
|       end of bar or part 
||      repeated part 
x       dead note 
pm --'  palm mute 
~       vibrato 
  

top 5 | mitski
top rock'n roll
Outras músicas do artista letras do(a) Mitski
Top cifras »Top artistas »
Petaxxon Comunicação Online
Cifras.com.br - Melhor e mais completo site de cifras e tablaturas do Brasil
Mais de 1 milhão de acordes de músicas cadastradas desde 2003
As informações contidas no nosso site são colaborações de seus usuários e podem conter erros, sendo assim, não nos responsabilizamos sobre nenhuma destas.
close
menos
mais
close
Cor dos acordes:

Cor da letra:

 

save
close
close
 
redimensionar