Cifras e Tablaturas
Modern Baseball

Modern Baseball

Best Friend (acoustic)

Cifras Cancelar Versão de Impressão
cifras

Modern Baseball - Best Friend (acoustic)

fixar na tela  
Exibindo: vídeo-aula ver clipes redimensionar

Tom:

  
eb |----------------------------------------------------| 
Bb |----------------------------------------------------| 
Gb |------4-----2-----4-----2-----4-----2-----0-----0---| 
Db |----------------------------------------------------| 
Ab |----------------------------------------------------| 
Eb |--3------3-----3-----3-----3-----3-----3-----3------| 

eb |----------------------------------------------------| 
Bb |-----0-----------0----------------------------------| 
Gb |-----------0-----------0-----0-----0-----0-----0----| 
Db |----------------------------------------------------| 
Ab |---------------3-----3------------------------------| 
Eb |--0-----0------------------3-----3-----3-----3------| 
  

top 5 | modern baseball
top rock'n roll
Outras músicas do artista letras do(a) Modern Baseball
Top cifras »Top artistas »
Petaxxon Comunicação Online
Cifras.com.br - Melhor e mais completo site de cifras e tablaturas do Brasil
Mais de 1 milhão de acordes de músicas cadastradas desde 2003
As informações contidas no nosso site são colaborações de seus usuários e podem conter erros, sendo assim, não nos responsabilizamos sobre nenhuma destas.
close
menos
mais
close
Cor dos acordes:

Cor da letra:

 

save
close
close
 
redimensionar