Cifras e Tablaturas
Monster Truck

Monster Truck

The Enforcer

Cifras Cancelar Versão de Impressão
cifras

Monster Truck - The Enforcer

fixar na tela  
Exibindo: vídeo-aula ver clipes redimensionar

Tom:

  
Intro 

d|---------------------------------------------------------------------------------| 
A|---------------------------------------------------------------------------------| 
F|---------------------------------------------------------------------------------| 
C|--12\-----------------------------X-----X---X---X---X---X---X---X---X------------| 
G|----------------------------------X-----X---X---X---X---X---X---X---X------------| 
D|-------0h4--0h5--0h7--0h9--0h12---X-X---X-X-X---X-X-X---X-X-X---X-X-X------------| 

d|---------------------------------------------------------------------------| 
A|---------------------------------------------------------------------------| 
F|---------------------------------------------------------------------------| 
C|----------------------------------X-----X---X---X---X---X---X---X---X------| 
G|----------------------------------X-----X---X---X---X---X---X---X---X------| 
D|-12\5--0h4--0h5--0h7--0h9--0h12---X-X---X-X-X---X-X-X---X-X-X---X-X-X------| 

d|---------------------------------------------------------------------------| 
A|---------------------------------------------------------------------------| 
F|---------------------------------------------------------------------------| 
C|---------------------------------------------------------------------------| 
G|---------------------------------------------------------------------------| 
D|-12\5--0h4--0h5--0h7--0h9--0h12--------------------------------------------| 


Verse 

d|---------------------------------------------------|     |---------| 
A|---------------------------------------------------|     |---------| 
F|---------------------------------------------------|     |---------| 
C|-X-----X---X---X---X-------------------------------| x3  |---------| 
G|-X-----X---X---X---X----------0-10b----------------|     |---2/3---| 
D|-X-X---X-X-X---X-X-X---12\7---------12-------------|     |---------| 

d|------------------------------------------------------------| 
A|------------------------------------------------------------| 
F|------------------------------------------------------------| 
C|----------------------------------X-----X---X---X---X-------| 
G|----------------------------------X-----X---X---X---X-------| 
D|-12\5--0h4--0h5--0h7--0h9--0h12---X-X---X-X-X---X-X-X-------| 

d|---------------------bend---------------------------------------------------| 
A|----------------------------------------------------------------------------| 
F|----------------------------------------------------------------------------| 
C|---------------X---------------------X-----X---X---X---X--------------X-----| 
G|--------3b-----X----------0-10b------X-----X---X---X---X---0-10b------X-----| 
D|-12\5-4----0---X-X--------------12---X-X---X-X-X---X-X-X---------12---X-X---| 


Pre-Chorus 

   D  G 
d|--------------------------------------------|----------------------------------------| 
A|--------------------------------------------|----------------------------------------| 
F|-2------------------------------------------|----------------------------------------| 
C|-3--3---------------------------------------|----------------------------------------| 
G|-3--2---------------------------------------|----------------------------------------| 
D|----3--5--5-5--5-5--5-5--5-5--5-5--5-5--5-5-|-3-3--3-3--3-3--3-3---9-9-9-9-9-9-9-9---| 


Chorus 

d|-----------------------------------------------|-----------------------------------------------------------| 
A|-----------------------------------------------|-----------------------------------------------------------| 
F|-----------------------------------------------|-----------------------------------------------------------| 
C|-----------------------------------------------|-----------------------------------------------------------| 
G|---------------10b---------------------10b-----|-----------------------------------------------------------| 
D|-12\5--0--10b-------12--10--0--0--10b-------12-|-10--10-10--10-10--10-10--10-10--5-5--5-5--5-5--5-5--3-----| 


d|-----------------------------------------|-----------------------------------------------------------------| 
A|-----------------------------------------|-----------------------------------------------------------------| 
F|-----------------------------------------|-----------------------------------------------------------------| 
C|-----------------------------------------|-----------------------------------------------------------------| 
G|---------10b---------------------10b-----|-----------------------------------------------------------------| 
D|-0--10b-------12--10--0--0--10b-------12-|-10--10-10--10-10--10-10--10-10--0h3--0h3--0h3--0h3--------------| 


d|-----------------------------------------|-----------------------------------------------------------------| 
A|-----------------------------------------|-----------------------------------------------------------------| 
F|-----------------------------------------|-----------------------------------------------------------------| 
C|-----------------------------------------|-----------------------------------------------------------------| 
G|---------10b---------------------10b-----|-----------------------------------------------------------------| 
D|-0--10b-------12--10--0--0--10b-------12-|-10--10-10--10-10--10-10--10-10--5-5--5-5--5-5--5-5--3-----------| 


d|-----------------------------------------|-----------------------------------------------------------------| 
A|-----------------------------------------|-----------------------------------------------------------------| 
F|-----------------------------------------|-----------------------------------------------------------------| 
C|-----------------------------------------|-----------------------------------------------------------------| 
G|---------10b---------------------10b-----|-----------------------------------------------------------------| 
D|-0--10b-------12--10--0--0--10b-------12-|-10--10-10--10-10--10-10---12\5--0h4--0h5--0h7--0h9--0h12--------| 


************************************ 

| x   dead note 
| h   Hammer-on 
| b   Bend 
| /   Slide up 
| \   Slide down 

************************************ 
  

cifra enviadasem correções
enviado porenviada por:hebealmeida
top 5 | monster truck
top rock alternativo
Outras músicas do artista letras do(a) Monster Truck
Top cifras »Top artistas »
Petaxxon Comunicação Online
Cifras.com.br - Melhor e mais completo site de cifras e tablaturas do Brasil
Mais de 1 milhão de acordes de músicas cadastradas desde 2003
As informações contidas no nosso site são colaborações de seus usuários e podem conter erros, sendo assim, não nos responsabilizamos sobre nenhuma destas.
close
menos
mais
close
Cor dos acordes:

Cor da letra:

 

save
close
close
 
redimensionar