Cifras e Tablaturas
My Dying Bride

My Dying Bride

To Remain Tombless

Cifras Cancelar Versão de Impressão
cifras

My Dying Bride - To Remain Tombless

fixar na tela  
Exibindo: vídeo-aula ver clipes redimensionar
  Time signature: 6/4 

  Intro Guitar 1 
C#|---------------------------------------------------|---------------------------------------------------| 
G#|---------------------------------------------------|---------------------------------------------------| 
E |---------------------------------------------------|---------------------------------------------------| 
B |---------------------------------------------------|---------------------------------------------------| 
F#|---------------------------------------------------|---------------------------------------------------| 
C#|-0--0-0-0-0--3-3-3-2-2-2-2--6-6-6-6--6--3-3-3-3--3-|-0--0-0-0-0--3-3-3-2-2-2-2--6-6-6-6--6--3-3-3-3--3-| 
PM  .  . . . .  . . . . . . .  . . . .  .  . . . .  .   .  . . . .  . . . . . . .  . . . .  .  . . . .  . 
     
         Guitar 2 
C#|---------------------------------------------------|---------------------------------------------------| 
G#|---------------------------------------------------|---------------------------------------------------| 
E |---------------------------------------------------|---------------------------------------------------| 
B |---------------------------------------------------|---------------------------------------------------| 
F#|---------------------------------------------------|-2--2-2-2-2----------------------------------------| 
C#|---------------------------------------------------|-0--0-0-0-0----------------------------------------| 
PM                                                      .  . . . . 

         Guitar 1 
C#|---------------------------------------------------|---------------------------------------------------| 
G#|---------------------------------------------------|---------------------------------------------------| 
E |---------------------------------------------------|---------------------------------------------------| 
B |---------------------------------------------------|---------------------------------------------------| 
F#|---------------------------------------------------|---------------------------------------------------| 
C#|-0--0-0-0-0--3-3-3-2-2-2-2--6-6-6-6--6--3-3-3-3--3-|-0--0-0-0-0--3-3-3-2-2-2-2--6-6-6-6--6--3-3-3-3--3-| 
PM  .  . . . .  . . . . . . .  . . . .  .  . . . .  .   .  . . . .  . . . . . . .  . . . .  .  . . . .  . 

         Guitar 2 
C#|---------------------------------------------------|---------------------------------------------------| 
G#|---------------------------------------------------|---------------------------------------------------| 
E |---------------------------------------------------|---------------------------------------------------| 
B |---------------------------------------------------|---------------------------------------------------| 
F#|-2--2-2-2-2----------------------------------------|-2--2-2-2-2----------------------------------------| 
C#|-0--0-0-0-0----------------------------------------|-0--0-0-0-0----------------------------------------| 
PM  .  . . . .                                          .  . . . 

  Pre-verse 1 Guitar 1&2 
C#|---------------------------------------------------|---------------------------------------------------| 
G#|---------------------------------------------------|---------------------------------------------------| 
E |---------------------------------------------------|---------------------------------------------------| 
B |---------------------------------------------------|---------------------------------------------------| 
F#|---------------------------------------------------|---------------------------------------------------| 
C#|-0--0-0-0-0--3-3-3-2-2-2-2--6-6-6-6--6--3-3-3-3--3-|-0--0-0-0-0--3-3-3-2-2-2-2--6-6-6-6--6--3-3-3-3--3-| 
PM  .  . . . .  . . . . . . .  . . . .  .  . . . .  .   .  . . . .  . . . . . . .  . . . .  .  . . . .  . 

C#|---------------------------------------------------|---------------------------------------------------| 
G#|---------------------------------------------------|---------------------------------------------------| 
E |---------------------------------------------------|---------------------------------------------------| 
B |---------------------------------------------------|---------------------------------------------------| 
F#|---------------------------------------------------|---------------------------------------------------| 
C#|-0--0-0-0-0--3-3-3-2-2-2-2--6-6-6-6--6--3-3-3-3--3-|-0--0-0-0-0--3-3-3-2-2-2-2--6-6-6-6--6--3-3-3-3--3-| 
PM  .  . . . .  . . . . . . .  . . . .  .  . . . .  .   .  . . . .  . . . . . . .  . . . .  .  . . . .  . 

  verse 1 Guitar 1&2 
C#|---------------------------------------------------|---------------------------------------------------| 
G#|---------------------------------------------------|---------------------------------------------------| 
E |---------------------------------------------------|---------------------------------------------------| 
B |---------------------------------------------------|---------------------------------------------------| 
F#|---------------------------------------------------|---------------------------------------------------| 
C#|-0--0-0-0-0--3-3-3-2-2-2-2--6-6-6-6--6--3-3-3-3--3-|-0--0-0-0-0--3-3-3-2-2-2-2--6-6-6-6--6--3-3-3-3--3-| 
PM  .  . . . .  . . . . . . .  . . . .  .  . . . .  .   .  . . . .  . . . . . . .  . . . .  .  . . . .  . 


C#|---------------------------------------------------|---------------------------------------------------| 
G#|---------------------------------------------------|---------------------------------------------------| 
E |---------------------------------------------------|---------------------------------------------------| 
B |---------------------------------------------------|---------------------------------------------------| 
F#|---------------------------------------------------|---------------------------------------------------| 
C#|-0--0-0-0-0--3-3-3-2-2-2-2--6-6-6-6--6--3-3-3-3--3-|-0--0-0-0-0--3-3-3-2-2-2-2--6-6-6-6--6--3-3-3-3--3-| 
PM  .  . . . .  . . . . . . .  . . . .  .  . . . .  .   .  . . . .  . . . . . . .  . . . .  .  . . . .  . 

C#|---------------------------------------------------|---------------------------------------------------| 
G#|---------------------------------------------------|---------------------------------------------------| 
E |---------------------------------------------------|---------------------------------------------------| 
B |---------------------------------------------------|---------------------------------------------------| 
F#|---------------------------------------------------|---------------------------------------------------| 
C#|-0--0-0-0-0--3-3-3-2-2-2-2--6-6-6-6--6--3-3-3-3--3-|-0--0-0-0-0--3-3-3-2-2-2-2--6-6-6-6--6--3-3-3-3--3-| 
PM  .  . . . .  . . . . . . .  . . . .  .  . . . .  .   .  . . . .  . . . . . . .  . . . .  .  . . . .  . 

C#|---------------------------------------------------|---------------------------------------------------| 
G#|---------------------------------------------------|---------------------------------------------------| 
E |---------------------------------------------------|---------------------------------------------------| 
B |---------------------------------------------------|---------------------------------------------------| 
F#|---------------------------------------------------|---------------------------------------------------| 
C#|-0--0-0-0-0--3-3-3-2-2-2-2--6-6-6-6--6--3-3-3-3--3-|-0--0-0-0-0--3-3-3-2-2-2-2--6-6-6-6--6--3-3-3-3--3-| 
PM  .  . . . .  . . . . . . .  . . . .  .  . . . .  .   .  . . . .  . . . . . . .  . . . .  .  . . . .  . 

  Fill Guitar 1&2 
C#|------------------------------------------------------| 
G#|------------------------------------------------------| 
E |------------------------------------------------------| 
B |------------------------------------------------------| 
F#|-2--2-2-2-2--2-2-2-2-2-2-2--2--2-2-2-2--2-2-2-2-2-2-2-| 
C#|-0--0-0-0-0--0-0-0-0-0-0-0--0--0-0-0-0--0-0-0-0-0-0-0-| 
PM  .  . . . .  . . . . . . .  .  . . . .  . . . . . . .   

C#|------------------------------------------------------| 
G#|------------------------------------------------------| 
E |------------------------------------------------------| 
B |------------------------------------------------------| 
F#|-2--2-2-2-2--2-2-2-2-2-2-2--2--2-2-2-2--2-2-2-2-2-2-2-| 
C#|-0--0-0-0-0--0-0-0-0-0-0-0--0--0-0-0-0--0-0-0-0-0-0-0-| 
PM  .  . . . .  . . . . . . .  .  . . . .  . . . . . .   

  Pre-verse 2      Guitar 1 
C#|------------------------------------------------------| 
G#|------------------------------------------------------| 
E |------------------------------------------------------| 
B |------------------------------------------------------| 
F#|------------------------------------------------------| 
C#|-0--0-0-2h3-0--0-0-3h5-0--0-6-5-3-5-3-2/3-5-6-5-3-5h6-| 
PM  .  . .     .  . .     .  . . . . . .     . . . . 

C#|------------------------------------------------------| 
G#|------------------------------------------------------| 
E |------------------------------------------------------| 
B |------------------------------------------------------| 
F#|------------------------------------------------------| 
C#|-0--0-0-2h3-0--0-0-3h5-0--0-6-5-3-5-3-2/3-5-6-5-3-5h6-| 
PM  .  . .     .  . .     .  . . . . . .     . . . . 

  verse 2       Guitar 1&2 
C#|------------------------------------------------------| 
G#|------------------------------------------------------| 
E |------------------------------------------------------| 
B |------------------------------------------------------| 
F#|------------------------------------------------------| 
C#|-0--0-0-2h3-0--0-0-3h5-0--0-6-5-3-5-3-2/3-5-6-5-3-5h6-| 
PM  .  . .     .  . .     .  . . . . . .     . . . . 

C#|------------------------------------------------------| 
G#|------------------------------------------------------| 
E |------------------------------------------------------| 
B |------------------------------------------------------| 
F#|------------------------------------------------------| 
C#|-0--0-0-2h3-0--0-0-3h5-0--0-6-5-3-5-3-2/3-5-6-5-3-5h6-| 
PM  .  . .     .  . .     .  . . . . . .     . . . . 

C#|------------------------------------------------------| 
G#|------------------------------------------------------| 
E |------------------------------------------------------| 
B |------------------------------------------------------| 
F#|------------------------------------------------------| 
C#|-0--0-0-2h3-0--0-0-3h5-0--0-6-5-3-5-3-2/3-5-6-5-3-5h6-| 
PM  .  . .     .  . .     .  . . . . . .     . . . . 

C#|------------------------------------------------------| 
G#|------------------------------------------------------| 
E |------------------------------------------------------| 
B |------------------------------------------------------| 
F#|------------------------------------------------------| 
C#|-0--0-0-2h3-0--0-0-3h5-0--0-6-5-3-5-3-2/3-5-6-5-3-5h6-| 
PM  .  . .     .  . .     .  . . . . . .     . . . . 

  Bridge      Guitar 1 
C#|--------------------------------------------------| 
G#|--------------------------------------------------| 
E |--------------------------------------------------| 
B |--------------------------------------------------| 
F#|--------10/9--------10/9--------10/9--------10/9--| 
C#|-0--0-0------0--0-0------0--0-0------0--0-0-------| 
PM  .  . .      .  . .      .  . .      .  . .       

        Guitar 2 
C#|----------------------------------------------| 
G#|----------------------------------------------| 
E |----------------------------------------------| 
B |----------------------------------------------| 
F#|----------------------------------------------| 
C#|-0--0-0-3/2-0--0-0-3/2-0--0-0-3/2-0--0-0-3/2--| 
PM  .  . .     .  . .     .  . .     .  . .      

  verse 3   Guitar 1 
C#|---------------------------------------------------|---------------------------------------------------| 
G#|---------------------------------------------------|---------------------------------------------------| 
E |---------------------------------------------------|---------------------------------------------------| 
B |-6-------------------------------------------------|-9-------------------------------------------------| 
F#|-4-------------------------------------------------|-9-------------------------------------------------| 
C#|-4-------------------------------------------------|-7-------------------------------------------------| 

       Guitar 2 
C#|---------------------------------------------------|---------------------------------------------------| 
G#|---------------------------------------------------|---------------------------------------------------| 
E |---------------------------------------------------|---------------------------------------------------| 
B |-6-----------------9------------11-----------------|-11-----------11-11\9-------------7----------------| 
F#|-4-------------------------------------------------|---------------------------------------------------| 
C#|-4-------------------------------------------------|---------------------------------------------------| 


       Guitar 1 
C#|---------------------------------------------------|---------------------------------------------------| 
G#|---------------------------------------------------|---------------------------------------------------| 
E |---------------------------------------------------|---------------------------------------------------| 
B |-6-------------------------------------------------|-9-------------------------------------------------| 
F#|-4-------------------------------------------------|-9-------------------------------------------------| 
C#|-4-------------------------------------------------|-7-------------------------------------------------| 

       Guitar 2 
C#|---------------------------------------------------|---------------------------------------------------| 
G#|---------------------------------------------------|---------------------------------------------------| 
E |---------------------------------------------------|---------------------------------------------------| 
B |-6-----------------9------------11-----------------|-11-----------11-11\9-------------9\7--------------| 
F#|-4-------------------------------------------------|---------------------------------------------------| 
C#|-4-------------------------------------------------|---------------------------------------------------| 

       Guitar 1 
C#|---------------------------------------------------|---------------------------------------------------| 
G#|---------------------------------------------------|---------------------------------------------------| 
E |---------------------------------------------------|---------------------------------------------------| 
B |-6-------------------------------------------------|-9-------------------------------------------------| 
F#|-4-------------------------------------------------|-9-------------------------------------------------| 
C#|-4-------------------------------------------------|-7-------------------------------------------------| 
     
       Guitar 2 
C#|---------------------------------------------------|---------------------------------------------------| 
G#|---------------------------------------------------|---------------------------------------------------| 
E |---------------------------------------------------|---------------------------------------------------| 
B |-6-----------------9------------11-----------------|-11-----------11-11\9-------------7----------------| 
F#|-4-------------------------------------------------|---------------------------------------------------| 
C#|-4-------------------------------------------------|---------------------------------------------------| 

       Guitar 1 
C#|---------------------------------------------------|---------------------------------------------------| 
G#|---------------------------------------------------|---------------------------------------------------| 
E |---------------------------------------------------|---------------------------------------------------| 
B |-6-------------------------------------------------|-9-------------------------------------------------| 
F#|-4-------------------------------------------------|-9-------------------------------------------------| 
C#|-4-------------------------------------------------|-7-------------------------------------------------| 

       Guitar 2 
C#|---------------------------------------------------|---------------------------------------------------| 
G#|---------------------------------------------------|---------------------------------------------------| 
E |---------------------------------------------------|---------------------------------------------------| 
B |-6-----------------9------------11-----------------|-11-----------11-11\9-------------9\7--------------| 
F#|-4-------------------------------------------------|---------------------------------------------------| 
C#|-4-------------------------------------------------|---------------------------------------------------| 


  Pre-verse 3       Guitar 1&2 
C#|------------------------------------------------------| 
G#|------------------------------------------------------| 
E |------------------------------------------------------| 
B |------------------------------------------------------| 
F#|------------------------------------------------------| 
C#|-0--0-0-2h3-0--0-0-3h5-0--0-6-5-3-5-3-2/3-5-6-5-3-5h6-| 
PM  .  . .     .  . .     .  . . . . . .     . . . . 

C#|------------------------------------------------------| 
G#|------------------------------------------------------| 
E |------------------------------------------------------| 
B |------------------------------------------------------| 
F#|------------------------------------------------------| 
C#|-0--0-0-2h3-0--0-0-3h5-0--0-6-5-3-5-3-2/3-5-6-5-3-5h6-| 
PM  .  . .     .  . .     .  . . . . . .     . . . . 

  verse 4 
C#|------------------------------------------------------| 
G#|------------------------------------------------------| 
E |------------------------------------------------------| 
B |------------------------------------------------------| 
F#|------------------------------------------------------| 
C#|-0--0-0-2h3-0--0-0-3h5-0--0-6-5-3-5-3-2/3-5-6-5-3-5h6-| 
PM  .  . .     .  . .     .  . . . . . .     . . . . 

C#|------------------------------------------------------| 
G#|------------------------------------------------------| 
E |------------------------------------------------------| 
B |------------------------------------------------------| 
F#|------------------------------------------------------| 
C#|-0--0-0-2h3-0--0-0-3h5-0--0-6-5-3-5-3-2/3-5-6-5-3-5h6-| 
PM  .  . .     .  . .     .  . . . . . .     . . . . 

  Bridge     Guitar 1 
C#|--------------------------------------------------| 
G#|--------------------------------------------------| 
E |--------------------------------------------------| 
B |--------------------------------------------------| 
F#|--------10/9--------10/9--------10/9--------10/9--| 
C#|-0--0-0------0--0-0------0--0-0------0--0-0-------| 
PM  .  . .      .  . .      .  . .      .  . .       

        Guitar 2 
C#|----------------------------------------------| 
G#|----------------------------------------------| 
E |----------------------------------------------| 
B |----------------------------------------------| 
F#|----------------------------------------------| 
C#|-0--0-0-3/2-0--0-0-3/2-0--0-0-3/2-0--0-0-3/2--| 
PM  .  . .     .  . .     .  . .     .  . .      

  Verse 5    Guitar 1 
C#|---------------------------------------------------|---------------------------------------------------| 
G#|---------------------------------------------------|---------------------------------------------------| 
E |---------------------------------------------------|---------------------------------------------------| 
B |-6-------------------------------------------------|-9-------------------------------------------------| 
F#|-4-------------------------------------------------|-9-------------------------------------------------| 
C#|-4-------------------------------------------------|-7-------------------------------------------------| 

       Guitar 2 
C#|---------------------------------------------------|---------------------------------------------------| 
G#|---------------------------------------------------|---------------------------------------------------| 
E |---------------------------------------------------|---------------------------------------------------| 
B |-6-----------------9------------11-----------------|-11-----------11-11\9-------------7----------------| 
F#|-4-------------------------------------------------|---------------------------------------------------| 
C#|-4-------------------------------------------------|---------------------------------------------------| 


       Guitar 1 
C#|---------------------------------------------------|---------------------------------------------------| 
G#|---------------------------------------------------|---------------------------------------------------| 
E |---------------------------------------------------|---------------------------------------------------| 
B |-6-------------------------------------------------|-9-------------------------------------------------| 
F#|-4-------------------------------------------------|-9-------------------------------------------------| 
C#|-4-------------------------------------------------|-7-------------------------------------------------| 

       Guitar 2 
C#|---------------------------------------------------|---------------------------------------------------| 
G#|---------------------------------------------------|---------------------------------------------------| 
E |---------------------------------------------------|---------------------------------------------------| 
B |-6-----------------9------------11-----------------|-11-----------11-11\9-------------9\7--------------| 
F#|-4-------------------------------------------------|---------------------------------------------------| 
C#|-4-------------------------------------------------|---------------------------------------------------| 

       Guitar 1 
C#|---------------------------------------------------|---------------------------------------------------| 
G#|---------------------------------------------------|---------------------------------------------------| 
E |---------------------------------------------------|---------------------------------------------------| 
B |-6-------------------------------------------------|-9-------------------------------------------------| 
F#|-4-------------------------------------------------|-9-------------------------------------------------| 
C#|-4-------------------------------------------------|-7-------------------------------------------------| 
     
       Guitar 2 
C#|---------------------------------------------------|---------------------------------------------------| 
G#|---------------------------------------------------|---------------------------------------------------| 
E |---------------------------------------------------|---------------------------------------------------| 
B |-6-----------------9------------11-----------------|-11-----------11-11\9-------------7----------------| 
F#|-4-------------------------------------------------|---------------------------------------------------| 
C#|-4-------------------------------------------------|---------------------------------------------------| 

       Guitar 1 
C#|---------------------------------------------------|---------------------------------------------------| 
G#|---------------------------------------------------|---------------------------------------------------| 
E |---------------------------------------------------|---------------------------------------------------| 
B |-6-------------------------------------------------|-9-------------------------------------------------| 
F#|-4-------------------------------------------------|-9-------------------------------------------------| 
C#|-4-------------------------------------------------|-7-------------------------------------------------| 

       Guitar 2 
C#|---------------------------------------------------|---------------------------------------------------| 
G#|---------------------------------------------------|---------------------------------------------------| 
E |---------------------------------------------------|---------------------------------------------------| 
B |-6-----------------9------------11-----------------|-11-----------11-11\9-------------9\7--------------| 
F#|-4-------------------------------------------------|---------------------------------------------------| 
C#|-4-------------------------------------------------|---------------------------------------------------| 

       Guitar 1 
C#|-----------------------------------------|-----------------------------------------| 
G#|-----------------------------------------|-----------------------------------------| 
E |-----------------------------------------|-----------------------------------------| 
B |-----------3----2--------------3----2----|-----------3----2--------------3----2----| 
F#|-3----5--------------3----5--------------|-3----5--------------3----5--------------| 
C#|-----------------------------------------|-----------------------------------------| 

      Guitars 1&2 
C#|---------------------------------------------|---------------------------------------------| 
G#|---------------------------------------------|---------------------------------------------| 
E |---------------------------------------------|---------------------------------------------| 
B |---------------------------------------------|---------------------------------------------| 
F#|-7-7-5-6-5--7-7-5-6-5--7-7-5-6-3--7-7-5-6-5--|-7-7-5-6-5--7-7-5-6-5--7-7-5-6-3--7-7-5-6-5--| 
C#|-5-5-3-4-3--5-5-3-4-3--5-5-3-4-3--5-5-3-4-3--|-5-5-3-4-3--5-5-3-4-3--5-5-3-4-3--5-5-3-4-3--| 
PM  . . . .    . . . .    . . . .    . . . .      . . . . .  . . . .    . . . .    . . . . 

  Verse 6   Guitar 1 
C#|---------------------------------------------------|---------------------------------------------------| 
G#|---------------------------------------------------|---------------------------------------------------| 
E |---------------------------------------------------|---------------------------------------------------| 
B |-------------------------3-3-3-3-3-3-3-2-2-2-2-2-2-|-------------------------3-3-3-3-3-3-3-2-2-2-2-2-2-| 
F#|-3-3-3-3-3-3-5-5-5-5-5-5---------------------------|-3-3-3-3-3-3-5-5-5-5-5-5---------------------------| 
C#|---------------------------------------------------|---------------------------------------------------| 
PM  . . . . . . . . . . . . . . . . . . . . . . . . .   . . . . . . . . . . . . . . . . . . . . . . . . .  

C#|---------------------------------------------------|---------------------------------------------------| 
G#|---------------------------------------------------|---------------------------------------------------| 
E |---------------------------------------------------|---------------------------------------------------| 
B |-------------------------3-3-3-3-3-3-3-2-2-2-2-2-2-|-------------------------3-3-3-3-3-3-3-2-2-2-2-2-2-| 
F#|-3-3-3-3-3-3-5-5-5-5-5-5---------------------------|-3-3-3-3-3-3-5-5-5-5-5-5---------------------------| 
C#|---------------------------------------------------|---------------------------------------------------| 
PM  . . . . . . . . . . . . . . . . . . . . . . . . .   . . . . . . . . . . . . . . . . . . . . . . . . .  

      Guitars 1&2 
C#|---------------------------------------------|---------------------------------------------| 
G#|---------------------------------------------|---------------------------------------------| 
E |---------------------------------------------|---------------------------------------------| 
B |---------------------------------------------|---------------------------------------------| 
F#|-7-7-5-6-5--7-7-5-6-5--7-7-5-6-3--7-7-5-6-5--|-7-7-5-6-5--7-7-5-6-5--7-7-5-6-3--7-7-5-6-5--| 
C#|-5-5-3-4-3--5-5-3-4-3--5-5-3-4-3--5-5-3-4-3--|-5-5-3-4-3--5-5-3-4-3--5-5-3-4-3--5-5-3-4-3--| 
PM  . . . .    . . . .    . . . .    . . . .      . . . . .  . . . .    . . . .    . . . . 

  Verse 7   Guitar 1 
C#|---------------------------------------------------|---------------------------------------------------| 
G#|---------------------------------------------------|---------------------------------------------------| 
E |---------------------------------------------------|---------------------------------------------------| 
B |-------------------------3-3-3-3-3-3-3-2-2-2-2-2-2-|-------------------------3-3-3-3-3-3-3-2-2-2-2-2-2-| 
F#|-3-3-3-3-3-3-5-5-5-5-5-5---------------------------|-3-3-3-3-3-3-5-5-5-5-5-5---------------------------| 
C#|---------------------------------------------------|---------------------------------------------------| 
PM  . . . . . . . . . . . . . . . . . . . . . . . . .   . . . . . . . . . . . . . . . . . . . . . . . . .  

C#|---------------------------------------------------|---------------------------------------------------| 
G#|---------------------------------------------------|---------------------------------------------------| 
E |---------------------------------------------------|---------------------------------------------------| 
B |-------------------------3-3-3-3-3-3-3-2-2-2-2-2-2-|-------------------------3-3-3-3-3-3-3-2-2-2-2-2-2-| 
F#|-3-3-3-3-3-3-5-5-5-5-5-5---------------------------|-3-3-3-3-3-3-5-5-5-5-5-5---------------------------| 
C#|---------------------------------------------------|---------------------------------------------------| 
PM  . . . . . . . . . . . . . . . . . . . . . . . . .   . . . . . . . . . . . . . . . . . . . . . . . . .  

  Verse 7   Guitar 1 
C#|---------------------------------------------------|---------------------------------------------------| 
G#|---------------------------------------------------|---------------------------------------------------| 
E |---------------------------------------------------|---------------------------------------------------| 
B |-6-------------------------------------------------|-9-------------------------------------------------| 
F#|-4-------------------------------------------------|-9-------------------------------------------------| 
C#|-4-------------------------------------------------|-7-------------------------------------------------| 

       Guitar 2 
C#|---------------------------------------------------|---------------------------------------------------| 
G#|---------------------------------------------------|---------------------------------------------------| 
E |---------------------------------------------------|---------------------------------------------------| 
B |-6-----------------9------------11-----------------|-11-----------11-11\9-------------7----------------| 
F#|-4-------------------------------------------------|---------------------------------------------------| 
C#|-4-------------------------------------------------|---------------------------------------------------| 


       Guitar 1 
C#|---------------------------------------------------|---------------------------------------------------| 
G#|---------------------------------------------------|---------------------------------------------------| 
E |---------------------------------------------------|---------------------------------------------------| 
B |-6-------------------------------------------------|-9-------------------------------------------------| 
F#|-4-------------------------------------------------|-9-------------------------------------------------| 
C#|-4-------------------------------------------------|-7-------------------------------------------------| 

       Guitar 2 
C#|---------------------------------------------------|---------------------------------------------------| 
G#|---------------------------------------------------|---------------------------------------------------| 
E |---------------------------------------------------|---------------------------------------------------| 
B |-6-----------------9------------11-----------------|-11-----------11-11\9-------------9\7--------------| 
F#|-4-------------------------------------------------|---------------------------------------------------| 
C#|-4-------------------------------------------------|---------------------------------------------------| 

       Guitar 1 
C#|---------------------------------------------------|---------------------------------------------------| 
G#|---------------------------------------------------|---------------------------------------------------| 
E |---------------------------------------------------|---------------------------------------------------| 
B |-6-------------------------------------------------|-9-------------------------------------------------| 
F#|-4-------------------------------------------------|-9-------------------------------------------------| 
C#|-4-------------------------------------------------|-7-------------------------------------------------| 
     
       Guitar 2 
C#|---------------------------------------------------|---------------------------------------------------| 
G#|---------------------------------------------------|---------------------------------------------------| 
E |---------------------------------------------------|---------------------------------------------------| 
B |-6-----------------9------------11-----------------|-11-----------11-11\9-------------7----------------| 
F#|-4-------------------------------------------------|---------------------------------------------------| 
C#|-4-------------------------------------------------|---------------------------------------------------| 

       Guitar 1 
C#|---------------------------------------------------|---------------------------------------------------| 
G#|---------------------------------------------------|---------------------------------------------------| 
E |---------------------------------------------------|---------------------------------------------------| 
B |-6-------------------------------------------------|-9-------------------------------------------------| 
F#|-4-------------------------------------------------|-9-------------------------------------------------| 
C#|-4-------------------------------------------------|-7-------------------------------------------------| 

       Guitar 2 
C#|---------------------------------------------------|---------------------------------------------------| 
G#|---------------------------------------------------|---------------------------------------------------| 
E |---------------------------------------------------|---------------------------------------------------| 
B |-6-----------------9------------11-----------------|-11-----------11-11\9-------------9\7--------------| 
F#|-4-------------------------------------------------|---------------------------------------------------| 
C#|-4-------------------------------------------------|---------------------------------------------------| 
   
    Guitar 1&2 
C#|---------------------------------------------|---------------------------------------------| 
G#|---------------------------------------------|---------------------------------------------| 
E |---------------------------------------------|---------------------------------------------| 
B |---------------------------------------------|---------------------------------------------| 
F#|-7-7-5-6-5--7-7-5-6-5--7-7-5-6-3--7-7-5-6-5--|-7-7-5-6-5--7-7-5-6-5--7-7-5-6-3--7-7-5-6-5--| 
C#|-5-5-3-4-3--5-5-3-4-3--5-5-3-4-3--5-5-3-4-3--|-5-5-3-4-3--5-5-3-4-3--5-5-3-4-3--5-5-3-4-3--| 
PM  . . . .    . . . .    . . . .    . . . .      . . . . .  . . . .    . . . .    . . . . 

  Verse 8    Guitar 1 
C#|---------------------------------------------------|---------------------------------------------------| 
G#|---------------------------------------------------|---------------------------------------------------| 
E |---------------------------------------------------|---------------------------------------------------| 
B |-------------------------3-3-3-3-3-3-3-2-2-2-2-2-2-|-------------------------3-3-3-3-3-3-3-2-2-2-2-2-2-| 
F#|-3-3-3-3-3-3-5-5-5-5-5-5---------------------------|-3-3-3-3-3-3-5-5-5-5-5-5---------------------------| 
C#|---------------------------------------------------|---------------------------------------------------| 
PM  . . . . . . . . . . . . . . . . . . . . . . . . .   . . . . . . . . . . . . . . . . . . . . . . . . .  

C#|---------------------------------------------------|---------------------------------------------------| 
G#|---------------------------------------------------|---------------------------------------------------| 
E |---------------------------------------------------|---------------------------------------------------| 
B |-------------------------3-3-3-3-3-3-3-2-2-2-2-2-2-|-------------------------3-3-3-3-3-3-3-2-2-2-2-2-2-| 
F#|-3-3-3-3-3-3-5-5-5-5-5-5---------------------------|-3-3-3-3-3-3-5-5-5-5-5-5---------------------------| 
C#|---------------------------------------------------|---------------------------------------------------| 
PM  . . . . . . . . . . . . . . . . . . . . . . . . .   . . . . . . . . . . . . . . . . . . . . . . . . .  

      Guitar 1&2 
C#|---------------------------------------------|---------------------------------------------| 
G#|---------------------------------------------|---------------------------------------------| 
E |---------------------------------------------|---------------------------------------------| 
B |---------------------------------------------|---------------------------------------------| 
F#|-7-7-5-6-5--7-7-5-6-5--7-7-5-6-3--7-7-5-6-5--|-7-7-5-6-5--7-7-5-6-5--7-7-5-6-3--7-7-5-6-5--| 
C#|-5-5-3-4-3--5-5-3-4-3--5-5-3-4-3--5-5-3-4-3--|-5-5-3-4-3--5-5-3-4-3--5-5-3-4-3--5-5-3-4-3--| 
PM  . . . .    . . . .    . . . .    . . . .      . . . . .  . . . .    . . . .    . . . . 


************************************ 

| h   Hammer-on 
| /   Slide up 
| \   Slide down 
| PM  Palm mute 

************************************ 
  

top 5 | my dying bride
top rock alternativo
Outras músicas do artista letras do(a) My Dying Bride
Top cifras »Top artistas »
Petaxxon Comunicação Online
Cifras.com.br - Melhor e mais completo site de cifras e tablaturas do Brasil
Mais de 1 milhão de acordes de músicas cadastradas desde 2003
As informações contidas no nosso site são colaborações de seus usuários e podem conter erros, sendo assim, não nos responsabilizamos sobre nenhuma destas.
close
menos
mais
close
Cor dos acordes:

Cor da letra:

 

save
close
close
 
redimensionar