Cifras e Tablaturas
Nahko Bear

Nahko Bear

Creations Daughter

Cifras Cancelar Versão de Impressão
cifras

Nahko Bear - Creations Daughter

fixar na tela  
Exibindo: vídeo-aula ver clipes redimensionar
  
Part 1:(The G at the end is played d uu d uu at first but Nahko differs his strumming) 
    G D/F#   Em     C         G (Play this G chord twice at the end of the Intro and between each Verse) 
e|-------3----------0---0-0-|-3-3-3--3-3-3------------| 
B|-------2----------1---1-1-|-3-3-3--3-3-3------------| 
G|-------3----------0---0-0-|-0-0-0--0-0-0------------|  (2x) 
D|-----------2--h2--2---2-2-|-0-0-0--0-0-0------------| 
A|-----------2--h2--3---3-3-|-2-2-2--2-2-2------------| 
E|--3-2-------------0---0-0-|-3-3-3--3-3-3------------| 

Part 2  
    C9                        G 
e|--3--3--3---3--3--3-------|-3-3-3--3-3-3------------| 
B|--3--3--3---3--3--3-------|-3-3-3--3-3-3------------| 
G|--0--0--0---0--0--0-------|-0-0-0--0-0-0------------|  (2x) 
D|--2--2--2---2--2--2-------|-0-0-0--0-0-0------------| 
A|--3--3--3---3--3--3-------|-2-2-2--2-2-2------------| 
E|--x--x--x---x--x--x-------|-3-3-3--3-3-3------------| 

verse 1 
          
Stoned on a stone on the Truckee River 
    G D/F#   Em     C         G 
e|-------3----------0---0-0-|-3-3-3--3-3-3------------| 
B|-------2----------1---1-1-|-3-3-3--3-3-3------------| 
G|-------3----------0---0-0-|-0-0-0--0-0-0------------|   
D|-----------2--h2--2---2-2-|-0-0-0--0-0-0------------| 
A|-----------2--h2--3---3-3-|-2-2-2--2-2-2------------| 
E|--3-2-------------0---0-0-|-3-3-3--3-3-3------------| 
So lost in thought Oh, the thing's I remember 
    G D/F#   Em     C         G 
e|-------3----------0---0-0-|-3-3-3--3-3-3------------| 
B|-------2----------1---1-1-|-3-3-3--3-3-3------------| 
G|-------3----------0---0-0-|-0-0-0--0-0-0------------|   
D|-----------2--h2--2---2-2-|-0-0-0--0-0-0------------| 
A|-----------2--h2--3---3-3-|-2-2-2--2-2-2------------| 
E|--3-2-------------0---0-0-|-3-3-3--3-3-3------------| 
                                                        
One of them's your pretty face 
    C9                        G 
e|--3--3--3---3--3--3-------|-3-3-3--3-3-3------------| 
B|--3--3--3---3--3--3-------|-3-3-3--3-3-3------------| 
G|--0--0--0---0--0--0-------|-0-0-0--0-0-0------------| 
D|--2--2--2---2--2--2-------|-0-0-0--0-0-0------------| 
A|--3--3--3---3--3--3-------|-2-2-2--2-2-2------------| 
E|--x--x--x---x--x--x-------|-3-3-3--3-3-3------------| 
                                                        
Another's the things it would say 
    C9                        G 
e|--3--3--3---3--3--3-------|-3-3-3--3-3-3------------| 
B|--3--3--3---3--3--3-------|-3-3-3--3-3-3------------| 
G|--0--0--0---0--0--0-------|-0-0-0--0-0-0------------| 
D|--2--2--2---2--2--2-------|-0-0-0--0-0-0------------| 
A|--3--3--3---3--3--3-------|-2-2-2--2-2-2------------| 
E|--x--x--x---x--x--x-------|-3-3-3--3-3-3------------|  
                                                         
Things like 
                                                         
All of these pivotal, obvious profits 
    G D/F#   Em     C         G 
e|-------3----------0---0-0-|-3-3-3--3-3-3------------| 
B|-------2----------1---1-1-|-3-3-3--3-3-3------------| 
G|-------3----------0---0-0-|-0-0-0--0-0-0------------|   
D|-----------2--h2--2---2-2-|-0-0-0--0-0-0------------| 
A|-----------2--h2--3---3-3-|-2-2-2--2-2-2------------| 
E|--3-2-------------0---0-0-|-3-3-3--3-3-3------------|  
                                                                                                            
They are the change, and the change in your pocket 
    G D/F#   Em     C         G 
e|-------3----------0---0-0-|-3-3-3--3-3-3------------| 
B|-------2----------1---1-1-|-3-3-3--3-3-3------------| 
G|-------3----------0---0-0-|-0-0-0--0-0-0------------|   
D|-----------2--h2--2---2-2-|-0-0-0--0-0-0------------| 
A|-----------2--h2--3---3-3-|-2-2-2--2-2-2------------| 
E|--3-2-------------0---0-0-|-3-3-3--3-3-3------------|  
                                                                                                             
Always pushin' for the moment 
    C9                        G 
e|--3--3--3---3--3--3-------|-3-3-3--3-3-3------------| 
B|--3--3--3---3--3--3-------|-3-3-3--3-3-3------------| 
G|--0--0--0---0--0--0-------|-0-0-0--0-0-0------------| 
D|--2--2--2---2--2--2-------|-0-0-0--0-0-0------------| 
A|--3--3--3---3--3--3-------|-2-2-2--2-2-2------------| 
E|--x--x--x---x--x--x-------|-3-3-3--3-3-3------------| 
                                                        
'Cause you lose control, but you just flow with it 
    C9                        G 
e|--3--3--3---3--3--3-------|-3-3-3--3-3-3------------| 
B|--3--3--3---3--3--3-------|-3-3-3--3-3-3------------| 
G|--0--0--0---0--0--0-------|-0-0-0--0-0-0------------| 
D|--2--2--2---2--2--2-------|-0-0-0--0-0-0------------| 
A|--3--3--3---3--3--3-------|-2-2-2--2-2-2------------| 
E|--x--x--x---x--x--x-------|-3-3-3--3-3-3------------| 
                                                                                                             
verse 2 
                                                                                                             
I have seen faces gathering in the desert 
    G D/F#   Em     C         G 
e|-------3----------0---0-0-|-3-3-3--3-3-3------------| 
B|-------2----------1---1-1-|-3-3-3--3-3-3------------| 
G|-------3----------0---0-0-|-0-0-0--0-0-0------------|   
D|-----------2--h2--2---2-2-|-0-0-0--0-0-0------------| 
A|-----------2--h2--3---3-3-|-2-2-2--2-2-2------------| 
E|--3-2-------------0---0-0-|-3-3-3--3-3-3------------| 
                                                         
Not to find God or to find an answer 
    G D/F#   Em     C         G 
e|-------3----------0---0-0-|-3-3-3--3-3-3------------| 
B|-------2----------1---1-1-|-3-3-3--3-3-3------------| 
G|-------3----------0---0-0-|-0-0-0--0-0-0------------|   
D|-----------2--h2--2---2-2-|-0-0-0--0-0-0------------| 
A|-----------2--h2--3---3-3-|-2-2-2--2-2-2------------| 
E|--3-2-------------0---0-0-|-3-3-3--3-3-3------------| 
                                                          
Just to be a part of the possibilities 
    C9                        G 
e|--3--3--3---3--3--3-------|-3-3-3--3-3-3------------| 
B|--3--3--3---3--3--3-------|-3-3-3--3-3-3------------| 
G|--0--0--0---0--0--0-------|-0-0-0--0-0-0------------| 
D|--2--2--2---2--2--2-------|-0-0-0--0-0-0------------| 
A|--3--3--3---3--3--3-------|-2-2-2--2-2-2------------| 
E|--x--x--x---x--x--x-------|-3-3-3--3-3-3------------| 
                                                        
Thousands of bodies creating energy 
    C9                        G 
e|--3--3--3---3--3--3-------|-3-3-3--3-3-3------------| 
B|--3--3--3---3--3--3-------|-3-3-3--3-3-3------------| 
G|--0--0--0---0--0--0-------|-0-0-0--0-0-0------------| 
D|--2--2--2---2--2--2-------|-0-0-0--0-0-0------------| 
A|--3--3--3---3--3--3-------|-2-2-2--2-2-2------------| 
E|--x--x--x---x--x--x-------|-3-3-3--3-3-3------------| 
                                                         
Well out here, there's certainly alien activity 
    G D/F#   Em     C         G 
e|-------3----------0---0-0-|-3-3-3--3-3-3------------| 
B|-------2----------1---1-1-|-3-3-3--3-3-3------------| 
G|-------3----------0---0-0-|-0-0-0--0-0-0------------|   
D|-----------2--h2--2---2-2-|-0-0-0--0-0-0------------| 
A|-----------2--h2--3---3-3-|-2-2-2--2-2-2------------| 
E|--3-2-------------0---0-0-|-3-3-3--3-3-3------------| 
                                                         
But where is "here," are we separate from reality? 
    G D/F#   Em     C         G 
e|-------3----------0---0-0-|-3-3-3--3-3-3------------| 
B|-------2----------1---1-1-|-3-3-3--3-3-3------------| 
G|-------3----------0---0-0-|-0-0-0--0-0-0------------|   
D|-----------2--h2--2---2-2-|-0-0-0--0-0-0------------| 
A|-----------2--h2--3---3-3-|-2-2-2--2-2-2------------| 
E|--3-2-------------0---0-0-|-3-3-3--3-3-3------------| 
                                                        
Maybe we've landed on the moon 
    C9                        G 
e|--3--3--3---3--3--3-------|-3-3-3--3-3-3------------| 
B|--3--3--3---3--3--3-------|-3-3-3--3-3-3------------| 
G|--0--0--0---0--0--0-------|-0-0-0--0-0-0------------| 
D|--2--2--2---2--2--2-------|-0-0-0--0-0-0------------| 
A|--3--3--3---3--3--3-------|-2-2-2--2-2-2------------| 
E|--x--x--x---x--x--x-------|-3-3-3--3-3-3------------| 
                                                         
Hope I don't have to leave any time soon 
    C9                        G 
e|--3--3--3---3--3--3-------|-3-3-3--3-3-3------------| 
B|--3--3--3---3--3--3-------|-3-3-3--3-3-3------------| 
G|--0--0--0---0--0--0-------|-0-0-0--0-0-0------------| 
D|--2--2--2---2--2--2-------|-0-0-0--0-0-0------------| 
A|--3--3--3---3--3--3-------|-2-2-2--2-2-2------------| 
E|--x--x--x---x--x--x-------|-3-3-3--3-3-3------------|  
                                                          
verse 3 
                                                         
I work those hills in the wild, wild west 
    G D/F#   Em     C         G 
e|-------3----------0---0-0-|-3-3-3--3-3-3------------| 
B|-------2----------1---1-1-|-3-3-3--3-3-3------------| 
G|-------3----------0---0-0-|-0-0-0--0-0-0------------|   
D|-----------2--h2--2---2-2-|-0-0-0--0-0-0------------| 
A|-----------2--h2--3---3-3-|-2-2-2--2-2-2------------| 
E|--3-2-------------0---0-0-|-3-3-3--3-3-3------------| 
                                                         
And there I found gold and knowledge and respect 
    G D/F#   Em     C         G 
e|-------3----------0---0-0-|-3-3-3--3-3-3------------| 
B|-------2----------1---1-1-|-3-3-3--3-3-3------------| 
G|-------3----------0---0-0-|-0-0-0--0-0-0------------|   
D|-----------2--h2--2---2-2-|-0-0-0--0-0-0------------| 
A|-----------2--h2--3---3-3-|-2-2-2--2-2-2------------| 
E|--3-2-------------0---0-0-|-3-3-3--3-3-3------------| 
                                                         
But none of this will bring you back 
    C9                        G 
e|--3--3--3---3--3--3-------|-3-3-3--3-3-3------------| 
B|--3--3--3---3--3--3-------|-3-3-3--3-3-3------------| 
G|--0--0--0---0--0--0-------|-0-0-0--0-0-0------------| 
D|--2--2--2---2--2--2-------|-0-0-0--0-0-0------------| 
A|--3--3--3---3--3--3-------|-2-2-2--2-2-2------------| 
E|--x--x--x---x--x--x-------|-3-3-3--3-3-3------------|    
                                                         
As the wanderer, I must expect that 
    C9                        G 
e|--3--3--3---3--3--3-------|-3-3-3--3-3-3------------| 
B|--3--3--3---3--3--3-------|-3-3-3--3-3-3------------| 
G|--0--0--0---0--0--0-------|-0-0-0--0-0-0------------| 
D|--2--2--2---2--2--2-------|-0-0-0--0-0-0------------| 
A|--3--3--3---3--3--3-------|-2-2-2--2-2-2------------| 
E|--x--x--x---x--x--x-------|-3-3-3--3-3-3------------|  
                                                        
Follow the rooster to the mouth of a portal 
    G D/F#   Em     C         G 
e|-------3----------0---0-0-|-3-3-3--3-3-3------------| 
B|-------2----------1---1-1-|-3-3-3--3-3-3------------| 
G|-------3----------0---0-0-|-0-0-0--0-0-0------------|   
D|-----------2--h2--2---2-2-|-0-0-0--0-0-0------------| 
A|-----------2--h2--3---3-3-|-2-2-2--2-2-2------------| 
E|--3-2-------------0---0-0-|-3-3-3--3-3-3------------| 
                                                        
I am an ox and I'm tired of these mortals 
    G D/F#   Em     C         G 
e|-------3----------0---0-0-|-3-3-3--3-3-3------------| 
B|-------2----------1---1-1-|-3-3-3--3-3-3------------| 
G|-------3----------0---0-0-|-0-0-0--0-0-0------------|   
D|-----------2--h2--2---2-2-|-0-0-0--0-0-0------------| 
A|-----------2--h2--3---3-3-|-2-2-2--2-2-2------------| 
E|--3-2-------------0---0-0-|-3-3-3--3-3-3------------| 
                                                        
Cleansing in the coastal waters 
    C9                        G 
e|--3--3--3---3--3--3-------|-3-3-3--3-3-3------------| 
B|--3--3--3---3--3--3-------|-3-3-3--3-3-3------------| 
G|--0--0--0---0--0--0-------|-0-0-0--0-0-0------------| 
D|--2--2--2---2--2--2-------|-0-0-0--0-0-0------------| 
A|--3--3--3---3--3--3-------|-2-2-2--2-2-2------------| 
E|--x--x--x---x--x--x-------|-3-3-3--3-3-3------------|  
I fell in love with a daughter of creation 
    C9                        G 
e|--3--3--3---3--3--3-------|-3-3-3-3-3-3-3------------| 
B|--3--3--3---3--3--3-------|-3-3-3-3-3-3-3------------| 
G|--0--0--0---0--0--0-------|-0-0-0-2-0-0-0------------| 
D|--2--2--2---2--2--2-------|-0-0-0-0-2-2-2------------| 
A|--3--3--3---3--3--3-------|-2-2-2-0-3-3-3------------| 
E|--x--x--x---x--x--x-------|-3-3-3-2-0-0-0------------|   
   C9                                                    
And how I lost her is another story to tell 


************************************ 

| h  Hammer-on 
| x  Dead note 

************************************ 
  

cifra enviadasem correções
enviado porenviada por:hebealmeida
top 5 | nahko bear
top rock'n roll
Outras músicas do artista letras do(a) Nahko Bear
Top cifras »Top artistas »
Petaxxon Comunicação Online
Cifras.com.br - Melhor e mais completo site de cifras e tablaturas do Brasil
Mais de 1 milhão de acordes de músicas cadastradas desde 2003
As informações contidas no nosso site são colaborações de seus usuários e podem conter erros, sendo assim, não nos responsabilizamos sobre nenhuma destas.
close
menos
mais
close
Cor dos acordes:

Cor da letra:

 

save
close
close
 
redimensionar