Cifras e Tablaturas
Nathan Ball

Nathan Ball

Right Place (acoustic)

Cifras Cancelar Versão de Impressão
cifras

Nathan Ball - Right Place (acoustic)

fixar na tela  
Exibindo: vídeo-aula ver clipes redimensionar

Tom:

  
Intro 
E|------------------------------------| 
B|------------------------------------| 
G|------------------------------------|.     Repeat x1 
D|-----0----0---0------0----0---0-----| 
A|---5----5----------5----5-----------| 
D|-5----5----5-----5----5----5--------| 


verse 1 & 2 

e|---------------------------------------------------------------------------| 
B|---------------------------------------------------------------------------| 
G|---------------------------------------------------------------------------| 
D|-----0----0----0---------0-----0-----0--------0-----0----0------0----5---0-|.   (Repeat x1) 
A|---5----5--------------7-----7--------------5-----5-----------5----5-------| 
D|-5----5-----5--------7-----7-----7--------5-----5-----5-----5----5----5----| 

    "It's in your hands..." 
    "And I still hear your voice" 

e|---------------------------------------------------------------------------| 
B|---------------------------------------------------------------------------| 
G|---------------------------------------------------------------------------| 
D|-----0-----0-----0------0----0---0---------0----0----0--------0----0----0--| 
A|---9-----9------------9----9-------------5----5-------------7----7---------| 
D|-9-----9-----9------9----9----9--------5----5----5--------7----7----7------| 

e|-------------------------------------| 
B|-------------------------------------| 
G|-------------------------------------| 
D|-----0----0----0-------0----0----0---|.    (Repeat x1 - bottom section only) 
A|---5----5------------5----5----------| 
D|-5----5----5-------5----5----5-------| 

   "And I don't know, how you can be so cold..." 
   "And I don't know..." 


Chorus 

e|------------------------------------------------------------------------| 
B|------------------------------------------------------------------------| 
G|------------------------------------------------------------------------| 
D|-----0----0---0-------0----0----0------0----0----0------0----0---0------|.  Repeat x3  
A|---9----9-----------7----7-----------5----5-----------5----5------------| 
D|-9----9----9------7----7----7------5----5----5------5----5----5---------| 

    "Put me back in the right place honey..." 


Outro 

e|------------------------------------------------------------------------------------| 
B|------------------------------------------------------------------------------------| 
G|------------------------------------------------------------------------------------| 
D|-------0------0----------------0------0--------------0----0-------------0----0------|.  repeat x3) 
A|----14-----14-----14--------12-----12-----12-------9----9----9--------7----7----7---| 
D|-12-----12-----12--------12-----12-----12--------9----9----9--------7----7----7-----| 

e|----------------| 
B|----------------| 
G|----------------|.  repeat x1 
D|----------------| 
A|-9---7---5------| 
D|-9---7---5------|  
  

top 5 | nathan ball
top rock'n roll
Outras músicas do artista letras do(a) Nathan Ball
Top cifras »Top artistas »
Petaxxon Comunicação Online
Cifras.com.br - Melhor e mais completo site de cifras e tablaturas do Brasil
Mais de 1 milhão de acordes de músicas cadastradas desde 2003
As informações contidas no nosso site são colaborações de seus usuários e podem conter erros, sendo assim, não nos responsabilizamos sobre nenhuma destas.
close
menos
mais
close
Cor dos acordes:

Cor da letra:

 

save
close
close
 
redimensionar