Cifras e Tablaturas
New Found Glory

New Found Glory

Say It Dont Spray It

Cifras Cancelar Versão de Impressão
cifras

New Found Glory - Say It Dont Spray It

fixar na tela  
Exibindo: vídeo-aula ver clipes redimensionar
  
         Intro 
  Q=113 (approx.) 
 2/4     4/4 
          Gtr I 
e|-----||--------------|---------------|-------------| 
B|-----||o-------------|---------------|-------------| 
G|-----||--------------|---------------|-------------| 
D|-----||--0-2---5-5---|---------------|-0-2---5-5---| 
A|-----||o-3-3---2-3---|--3--3--3--3-5-|-3-3---2-3---| 
E|-----||--------------|--1--1--1--1-3-|-------------| 


  1.                 2. 
e|----------------||-------------------|| 
B|---------------o||-------------------|| 
G|----------------||-------------------|| 
D|----------------||---3--3--3--3-5----|| 
A|--3--3--3--3-5-o||---3--3--3--3-5----|| 
E|--1--1--1--1-3--||---1--1--1--1-3----|| 


 Chorus 
e|---------------------------------------------|----------------| 
B|---------------------------------------------|----------------| 
G|--5-------5-----------4-------4--------------|----------------| 
D|--5-------5-----------5-------5--------------|---3--3--3--3-5-| 
A|--3-------3-----------2-------2--------------|---3--3--3--3-5-| 
E|---------------------------------------------|---1--1--1--1-3-| 
 | 
 | Gtr II 
e|-12-12-12---12-------10-10-10---10-----8-8-8-|-8--------------| 
B|--8--8--8----8--------8--8--8----8-----8-8-8-|-8--------------| 
G|---------------------------------------------|----------------| 
D|---------------------------------------------|----------------| 
A|---------------------------------------------|----------------| 
E|---------------------------------------------|----------------| 
 | 
 | Gtr III 
e|---------------------10----10---10-10-12-8---|----------------| 
B|--------8----8-10-8--------------------------|----------------| 
G|---------------------------------------------|----------------| 
D|---------------------------------------------|----------------| 
A|---------------------------------------------|----------------| 
E|---------------------------------------------|----------------| 


e|---------------------------------------------|-------------------| 
B|---------------------------------------------|-------------------| 
G|--5-------5-----------4-------4--------------|-------------------| 
D|--5-------5-----------5-------5--------------|---3--3--3--3-5----| 
A|--3-------3-----------2-------2--------------|---3--3--3--3-5----| 
E|---------------------------------------------|---1--1--1--1-3----| 
 | 
e|-12-12-12---12-------10-10-10---10-----8-8-8-|-8-----------------| 
B|--8--8--8----8--------8--8--8----8-----8-8-8-|-8-----------------| 
G|---------------------------------------------|-------------------| 
D|---------------------------------------------|-------------------| 
A|---------------------------------------------|-------------------| 
E|---------------------------------------------|-------------------| 
 | 
e|---------------------10----10---10-10-12-8---|-------------------| 
B|--------8----8-10-8--------------------------|-------------------| 
G|---------------------------------------------|-------------------| 
D|---------------------------------------------|-------------------| 
A|---------------------------------------------|-------------------| 
E|---------------------------------------------|-------------------| 


e|---------------------------------------------|----------------| 
B|---------------------------------------------|----------------| 
G|--5-------5-----------4-------4--------------|----------------| 
D|--5-------5-----------5-------5----------3---|---3--3--3--3-5-| 
A|--3-------3-----------2-------2----------3---|---3--3--3--3-5-| 
E|-----------------------------------------1---|---1--1--1--1-3-| 
 | 
e|-12-12-12---12-------10-10-10---10-----8-8-8-|-8--------------| 
B|--8--8--8----8--------8--8--8----8-----8-8-8-|-8--------------| 
G|---------------------------------------------|----------------| 
D|---------------------------------------------|----------------| 
A|---------------------------------------------|----------------| 
E|---------------------------------------------|----------------| 
 | 
e|---------------------10----10---10-10-12-8---|----------------| 
B|--------8----8-10-8--------------------------|----------------| 
G|---------------------------------------------|----------------| 
D|---------------------------------------------|----------------| 
A|---------------------------------------------|----------------| 
E|---------------------------------------------|----------------| 


e|---------------------------------------------|-------------------|| 
B|---------------------------------------------|-------------------|| 
G|--5-------5-----------4-------4--------------|-------------------|| 
D|--5-------5-----------5-------5--------------|---3--3--3--3-5----|| 
A|--3-------3-----------2-------2--------------|---3--3--3--3-5----|| 
E|---------------------------------------------|---1--1--1--1-3----|| 
 | 
e|-12-12-12---12-------10-10-10---10-----8-8-8-|-8-----------------|| 
B|--8--8--8----8--------8--8--8----8-----8-8-8-|-8-----------------|| 
G|---------------------------------------------|-------------------|| 
D|---------------------------------------------|-------------------|| 
A|---------------------------------------------|-------------------|| 
E|---------------------------------------------|-------------------|| 
 | 
e|---------------------10----10---10-10-12-8---|-------------------|| 
B|--------8----8-10-8--------------------------|-------------------|| 
G|---------------------------------------------|-------------------|| 
D|---------------------------------------------|-------------------|| 
A|---------------------------------------------|-------------------|| 
E|---------------------------------------------|-------------------|| 


e|------------------------------|------------------------------|| 
B|------------------------------|------------------------------|| 
G|-5-5-5-5----------------------|------------------------------|| 
D|-5-5-5-5----------------------|------------------------------|| 
A|-3-3-3-3----------------------|------------------------------|| 
E|------------------------------|------------------------------|| 
 | 
e|------------------------------|------------------------------|| 
B|-5-5-5-5--3-3-3-6-6-6-6-3-3-3-|-5-5-5-5--3-3-3-6-6-6-6-3-3-3-|| 
G|-5-5-5-5--5-5-5-5-5-5-5-5-5-5-|-5-5-5-5--5-5-5-5-5-5-5-5-5-5-|| 
D|------------------------------|------------------------------|| 
A|------------------------------|------------------------------|| 
E|------------------------------|------------------------------|| 


   Verse 
e||-------------------------------|---------------------------------| 
B||o------------------------------|---------------------------------| 
G||--5-5-5-5--5-5-5-5-5-5-5-5-5-5-|-5-5-5-5--5-5-5-5-5-5-5-5-5-5----| 
D||--5-5-5-5--5-5-5-5-5-5-5-5-5-5-|-5-5-5-5--5-5-5-5-5-5-5-5-5-5----| 
A||o-3-3-3-3--3-3-3-3-3-3-3-3-3-3-|-3-3-3-3--3-3-3-3-3-3-3-3-3-3----| 
E||-------------------------------|---------------------------------| 
 | 
e||-------------------------------|---------------------------------| 
B||o-5-5-5-5--3-3-3-6-6-6-6-3-3-3-|-5-5-5-5--3-3-3-6-6-6-6-3-3-3----| 
G||--5-5-5-5--5-5-5-5-5-5-5-5-5-5-|-5-5-5-5--5-5-5-5-5-5-5-5-5-5----| 
D||-------------------------------|---------------------------------| 
A||o------------------------------|---------------------------------| 
E||-------------------------------|---------------------------------| 


e|------------------------------|----------------------------------|| 
B|------------------------------|---------------------------------o|| 
G|------------------------------|----------------------------------|| 
D|-3-3-3-3--3-3-3-3-3-3-3-3-3-3-|-5-5-5-5--5-5-5-5-5-5-5-5-5-5-----|| 
A|-3-3-3-3--3-3-3-3-3-3-3-3-3-3-|-5-5-5-5--5-5-5-5-5-5-5-5-5-5----o|| 
E|-1-1-1-1--1-1-1-1-1-1-1-1-1-1-|-3-3-3-3--3-3-3-3-3-3-3-3-3-3-----|| 
 | 
e|------------------------------|----------------------------------|| 
B|-5-5-5-5--3-3-3-6-6-6-6-3-3-3-|---------------------------------o|| 
G|-5-5-5-5--5-5-5-5-5-5-5-5-5-5-|-4-4-4-4--4-4-4-7-7-7-7-4-4-4-----|| 
D|------------------------------|-5-5-5-5--5-5-5-5-5-5-5-5-5-5-----|| 
A|------------------------------|---------------------------------o|| 
E|------------------------------|----------------------------------|| 


 PreChorus 
e|-----------------|-----------------|-----------------|----------------------|| 
B|-----------------|-----------------|-----------------|----------------------|| 
G|-----------------|-----------------|-----------------|----------------------|| 
D|-2-2-2-2-2-2-2-2-|-3-3-3-3-3-3-3-3-|-2-2-2-2-2-2-2-2-|-3-3-3-5-(5)----------|| 
A|-2-2-2-2-2-2-2-2-|-3-3-3-3-3-3-3-3-|-2-2-2-2-2-2-2-2-|-3-3-3-5-(5)-----2-3--|| 
E|-0-0-0-0-0-0-0-0-|-1-1-1-1-1-1-1-1-|-0-0-0-0-0-0-0-0-|-1-1-1-3-(3)-3-5------|| 


 Chorus 
e|---------------------------------------|----------------| 
B|---------------------------------------|----------------| 
G|--5-------5--------4-------4-----------|----------------| 
D|--5-------5--------5-------5-----------|---3--3--3--3-5-| 
A|--3-------3--------2-------2-----------|---3--3--3--3-5-| 
E|---------------------------------------|---1--1--1--1-3-| 
 | 
 | Gtr II 
e|-12-12-12---12----10-10-10---10--8-8-8-|-8--------------| 
B|--8--8--8----8-----8--8--8----8--8-8-8-|-8--------------| 
G|---------------------------------------|----------------| 
D|---------------------------------------|----------------| 
A|---------------------------------------|----------------| 
E|---------------------------------------|----------------| 


e|---------------------------------------|-------------------| 
B|---------------------------------------|-------------------| 
G|--5-------5--------4-------4-----------|-------------------| 
D|--5-------5--------5-------5-----------|---3--3--3--3-5----| 
A|--3-------3--------2-------2-----------|---3--3--3--3-5----| 
E|---------------------------------------|---1--1--1--1-3----| 
 | 
e|-12-12-12---12----10-10-10---10--8-8-8-|-8-----------------| 
B|--8--8--8----8-----8--8--8----8--8-8-8-|-8-----------------| 
G|---------------------------------------|-------------------| 
D|---------------------------------------|-------------------| 
A|---------------------------------------|-------------------| 
E|---------------------------------------|-------------------| 


e|---------------------------------------------|----------------| 
B|---------------------------------------------|----------------| 
G|--5-------5-----------4-------4--------------|----------------| 
D|--5-------5-----------5-------5----------3---|---3--3--3--3-5-| 
A|--3-------3-----------2-------2----------3---|---3--3--3--3-5-| 
E|-----------------------------------------1---|---1--1--1--1-3-| 
 | 
e|-12-12-12---12-------10-10-10---10-----8-8-8-|-8--------------| 
B|--8--8--8----8--------8--8--8----8-----8-8-8-|-8--------------| 
G|---------------------------------------------|----------------| 
D|---------------------------------------------|----------------| 
A|---------------------------------------------|----------------| 
E|---------------------------------------------|----------------| 
 | 
 | Gtr III 
e|---------------------10----10---10-10-12-8---|----------------| 
B|--------8----8-10-8--------------------------|----------------| 
G|---------------------------------------------|----------------| 
D|---------------------------------------------|----------------| 
A|---------------------------------------------|----------------| 
E|---------------------------------------------|----------------| 


e|---------------------------------------------|-------------------|| 
B|---------------------------------------------|-------------------|| 
G|--5-------5-----------4-------4--------------|-------------------|| 
D|--5-------5-----------5-------5--------------|---3--3--3--3-5----|| 
A|--3-------3-----------2-------2--------------|---3--3--3--3-5----|| 
E|---------------------------------------------|---1--1--1--1-3----|| 
 | 
e|-12-12-12---12-------10-10-10---10-----8-8-8-|-8-----------------|| 
B|--8--8--8----8--------8--8--8----8-----8-8-8-|-8-----------------|| 
G|---------------------------------------------|-------------------|| 
D|---------------------------------------------|-------------------|| 
A|---------------------------------------------|-------------------|| 
E|---------------------------------------------|-------------------|| 
 | 
e|---------------------10----10---10-10-12-8---|-------------------|| 
B|--------8----8-10-8--------------------------|-------------------|| 
G|---------------------------------------------|-------------------|| 
D|---------------------------------------------|-------------------|| 
A|---------------------------------------------|-------------------|| 
E|---------------------------------------------|-------------------|| 


e|------------------------------|---------------------------------|| 
B|------------------------------|---------------------------------|| 
G|-5-5-5-5----------------------|---------------------------------|| 
D|-5-5-5-5----------------------|---------------------------------|| 
A|-3-3-3-3----------------------|---------------------------------|| 
E|------------------------------|---------------------------------|| 
 | 
e|------------------------------|---------------------------------|| 
B|-5-5-5-5--3-3-3-6-6-6-6-3-3-3-|-5-5-5-5--3-3-3-6-6-6-6-3-3-3----|| 
G|-5-5-5-5--5-5-5-5-5-5-5-5-5-5-|-5-5-5-5--5-5-5-5-5-5-5-5-5-5----|| 
D|------------------------------|---------------------------------|| 
A|------------------------------|---------------------------------|| 
E|------------------------------|---------------------------------|| 


   Verse 
e||-------------------------------|---------------------------------| 
B||o------------------------------|---------------------------------| 
G||--5-5-5-5--5-5-5-5-5-5-5-5-5-5-|-5-5-5-5--5-5-5-5-5-5-5-5-5-5----| 
D||--5-5-5-5--5-5-5-5-5-5-5-5-5-5-|-5-5-5-5--5-5-5-5-5-5-5-5-5-5----| 
A||o-3-3-3-3--3-3-3-3-3-3-3-3-3-3-|-3-3-3-3--3-3-3-3-3-3-3-3-3-3----| 
E||-------------------------------|---------------------------------| 
 | 
e||-------------------------------|---------------------------------| 
B||o-5-5-5-5--3-3-3-6-6-6-6-3-3-3-|-5-5-5-5--3-3-3-6-6-6-6-3-3-3----| 
G||--5-5-5-5--5-5-5-5-5-5-5-5-5-5-|-5-5-5-5--5-5-5-5-5-5-5-5-5-5----| 
D||-------------------------------|---------------------------------| 
A||o------------------------------|---------------------------------| 
E||-------------------------------|---------------------------------| 


e|------------------------------|----------------------------------|| 
B|------------------------------|---------------------------------o|| 
G|------------------------------|----------------------------------|| 
D|-3-3-3-3--3-3-3-3-3-3-3-3-3-3-|-5-5-5-5--5-5-5-5-5-5-5-5-5-5-----|| 
A|-3-3-3-3--3-3-3-3-3-3-3-3-3-3-|-5-5-5-5--5-5-5-5-5-5-5-5-5-5----o|| 
E|-1-1-1-1--1-1-1-1-1-1-1-1-1-1-|-3-3-3-3--3-3-3-3-3-3-3-3-3-3-----|| 
 | 
e|------------------------------|----------------------------------|| 
B|-5-5-5-5--3-3-3-6-6-6-6-3-3-3-|---------------------------------o|| 
G|-5-5-5-5--5-5-5-5-5-5-5-5-5-5-|-4-4-4-4--4-4-4-7-7-7-7-4-4-4-----|| 
D|------------------------------|-5-5-5-5--5-5-5-5-5-5-5-5-5-5-----|| 
A|------------------------------|---------------------------------o|| 
E|------------------------------|----------------------------------|| 


 PreChorus 
e|-----------------|-----------------|-----------------|----------------|--------|| 
B|-----------------|-----------------|-----------------|----------------|--------|| 
G|-----------------|-----------------|-----------------|----------------|--------|| 
D|-2-2-2-2-2-2-2-2-|-3-3-3-3-3-3-3-3-|-2-2-2-2-2-2-2-2-|-3-3-3-5-(5)----|-(5)----|| 
A|-2-2-2-2-2-2-2-2-|-3-3-3-3-3-3-3-3-|-2-2-2-2-2-2-2-2-|-3-3-3-5-(5)----|-(5)----|| 
E|-0-0-0-0-0-0-0-0-|-1-1-1-1-1-1-1-1-|-0-0-0-0-0-0-0-0-|-1-1-1-3-(3)----|-(3)----|| 


 Chorus 
e|---------------------------------------|----------------| 
B|---------------------------------------|----------------| 
G|--5-------5--------4-------4-----------|----------------| 
D|--5-------5--------5-------5-----------|---3--3--3--3-5-| 
A|--3-------3--------2-------2-----------|---3--3--3--3-5-| 
E|---------------------------------------|---1--1--1--1-3-| 
 | 
 | Gtr II 
e|-12-12-12---12----10-10-10---10--8-8-8-|-8--------------| 
B|--8--8--8----8-----8--8--8----8--8-8-8-|-8--------------| 
G|---------------------------------------|----------------| 
D|---------------------------------------|----------------| 
A|---------------------------------------|----------------| 
E|---------------------------------------|----------------| 


e|---------------------------------------|-------------------| 
B|---------------------------------------|-------------------| 
G|--5-------5--------4-------4-----------|-------------------| 
D|--5-------5--------5-------5-----------|---3--3--3--3-5----| 
A|--3-------3--------2-------2-----------|---3--3--3--3-5----| 
E|---------------------------------------|---1--1--1--1-3----| 
 | 
e|-12-12-12---12----10-10-10---10--8-8-8-|-8-----------------| 
B|--8--8--8----8-----8--8--8----8--8-8-8-|-8-----------------| 
G|---------------------------------------|-------------------| 
D|---------------------------------------|-------------------| 
A|---------------------------------------|-------------------| 
E|---------------------------------------|-------------------| 


e|---------------------------------------------|----------------| 
B|---------------------------------------------|----------------| 
G|--5-------5-----------4-------4--------------|----------------| 
D|--5-------5-----------5-------5----------3---|---3--3--3--3-5-| 
A|--3-------3-----------2-------2----------3---|---3--3--3--3-5-| 
E|-----------------------------------------1---|---1--1--1--1-3-| 
 | 
e|-12-12-12---12-------10-10-10---10-----8-8-8-|-8--------------| 
B|--8--8--8----8--------8--8--8----8-----8-8-8-|-8--------------| 
G|---------------------------------------------|----------------| 
D|---------------------------------------------|----------------| 
A|---------------------------------------------|----------------| 
E|---------------------------------------------|----------------| 
 | 
 | Gtr III 
e|---------------------10----10---10-10-12-8---|----------------| 
B|--------8----8-10-8--------------------------|----------------| 
G|---------------------------------------------|----------------| 
D|---------------------------------------------|----------------| 
A|---------------------------------------------|----------------| 
E|---------------------------------------------|----------------| 


e|---------------------------------------------|-------------------|| 
B|---------------------------------------------|-------------------|| 
G|--5-------5-----------4-------4--------------|-------------------|| 
D|--5-------5-----------5-------5--------------|---3--3--3--3-5----|| 
A|--3-------3-----------2-------2--------------|---3--3--3--3-5----|| 
E|---------------------------------------------|---1--1--1--1-3----|| 
 | 
e|-12-12-12---12-------10-10-10---10-----8-8-8-|-8-----------------|| 
B|--8--8--8----8--------8--8--8----8-----8-8-8-|-8-----------------|| 
G|---------------------------------------------|-------------------|| 
D|---------------------------------------------|-------------------|| 
A|---------------------------------------------|-------------------|| 
E|---------------------------------------------|-------------------|| 
 | 
e|---------------------10----10---10-10-12-8---|-------------------|| 
B|--------8----8-10-8--------------------------|-------------------|| 
G|---------------------------------------------|-------------------|| 
D|---------------------------------------------|-------------------|| 
A|---------------------------------------------|-------------------|| 
E|---------------------------------------------|-------------------|| 


   Bridge 
e||-----------------|-------------------|------------------|-------------------|| 
B||o----------------|-------------------|------------------|------------------o|| 
G||-----------------|-------------------|------------------|-------------------|| 
D||--7-----7------5-|-(5)-----5-------4-|-(4)-----4------3-|-(3)-----3---------|| 
A||o-7-----7------5-|-(5)-----5-------4-|-(4)-----4------3-|-(3)-----3--------o|| 
E||--5-----5------3-|-(3)-----3-------2-|-(2)-----2------1-|-(1)-----1---------|| 
 | 
e||-----------------|-------------------|------------------|-------------------|| 
B||o----------------|----------------/5-|-(5)--------------|------------------o|| 
G||--6-7-6-4------6-|-(6)-7-6-4---4-----|-----6-6-4----4-5-|-(5)-7-5-4---4-----|| 
D||----------7--4---|-----------7-------|-----------7------|-----------7-------|| 
A||o----------------|-------------------|------------------|------------------o|| 
E||-----------------|-------------------|------------------|-------------------|| 


 PreChorus 
  PM----------------------------------------------------------| 
e|-----------------|-----------------|-----------------|-----------------|| 
B|-----------------|-----------------|-----------------|-----------------|| 
G|-----------------|-----------------|-----------------|-----------------|| 
D|-2-2-2-2-2-2-2-2-|-3-3-3-3-3-3-3-3-|-2-2-2-2-2-2-2-2-|-3-3-3-3-5-5-5-5-|| 
A|-2-2-2-2-2-2-2-2-|-3-3-3-3-3-3-3-3-|-2-2-2-2-2-2-2-2-|-3-3-3-3-5-5-5-5-|| 
E|-0-0-0-0-0-0-0-0-|-1-1-1-1-1-1-1-1-|-0-0-0-0-0-0-0-0-|-1-1-1-1-3-3-3-3-|| 


 Intro 
e|-------------|---------------|-------------|-----------------|| 
B|-------------|---------------|-------------|-----------------|| 
G|-------------|---------------|-------------|-----------------|| 
D|-0-2---5-5---|---------------|-0-2---5-5---|-----------------|| 
A|-3-3---2-3---|--3--3--3--3-5-|-3-3---2-3---|--3--3--3--3-5---|| 
E|-------------|--1--1--1--1-3-|-------------|--1--1--1--1-3---|| 


e|----------------------------------|---------------| 
B|----------------------------------|---------------| 
G|----------------------------------|---------------| 
D|-0---2----------5----5------------|---------------| 
A|-3---3----------2----3------------|--3--3--3--3-5-| 
E|----------------------------------|--1--1--1--1-3-| 
 | 
 | Gtr III 
e|---------------10-10---10-10-12-8-|---------------| 
B|---8---8-10-8---------------------|---------------| 
G|----------------------------------|---------------| 
D|----------------------------------|---------------| 
A|----------------------------------|---------------| 
E|----------------------------------|---------------| 


e|----------------------------------|---------------| 
B|----------------------------------|---------------| 
G|----------------------------------|---------------| 
D|-0---2----------5----5------------|---------------| 
A|-3---3----------2----3------------|--3--3--3--3---| 
E|----------------------------------|--1--1--1--1---| 
| 
e|---------------10-10---10-10-12-8-|---------------| 
B|---8---8-10-8---------------------|---------------| 
G|----------------------------------|---------------| 
D|----------------------------------|---------------| 
A|----------------------------------|---------------| 
E|----------------------------------|---------------| 


 Chorus/Outro 
e|---------------------------------------------|----------------| 
B|---------------------------------------------|----------------| 
G|--5-------5-----------4-------4--------------|----------------| 
D|--5-------5-----------5-------5--------------|---3--3--3--3-5-| 
A|--3-------3-----------2-------2--------------|---3--3--3--3-5-| 
E|---------------------------------------------|---1--1--1--1-3-| 
 | 
 | Gtr II 
e|-12-12-12---12-------10-10-10---10-----8-8-8-|-8--------------| 
B|--8--8--8----8--------8--8--8----8-----8-8-8-|-8--------------| 
G|---------------------------------------------|----------------| 
D|---------------------------------------------|----------------| 
A|---------------------------------------------|----------------| 
E|---------------------------------------------|----------------| 
 | 
 | Gtr III 
e|---------------------10----10---10-10-12-8---|----------------| 
B|--------8----8-10-8--------------------------|----------------| 
G|---------------------------------------------|----------------| 
D|---------------------------------------------|----------------| 
A|---------------------------------------------|----------------| 
E|---------------------------------------------|----------------| 


e|---------------------------------------------|-------------------| 
B|---------------------------------------------|-------------------| 
G|--5-------5-----------4-------4--------------|-------------------| 
D|--5-------5-----------5-------5--------------|---3--3--3--3-5----| 
A|--3-------3-----------2-------2--------------|---3--3--3--3-5----| 
E|---------------------------------------------|---1--1--1--1-3----| 
 | 
e|-12-12-12---12-------10-10-10---10-----8-8-8-|-8-----------------| 
B|--8--8--8----8--------8--8--8----8-----8-8-8-|-8-----------------| 
G|---------------------------------------------|-------------------| 
D|---------------------------------------------|-------------------| 
A|---------------------------------------------|-------------------| 
E|---------------------------------------------|-------------------| 
 | 
e|---------------------10----10---10-10-12-8---|-------------------| 
B|--------8----8-10-8--------------------------|-------------------| 
G|---------------------------------------------|-------------------| 
D|---------------------------------------------|-------------------| 
A|---------------------------------------------|-------------------| 
E|---------------------------------------------|-------------------| 


e|---------------------------------------------|----------------| 
B|---------------------------------------------|----------------| 
G|--5-------5-----------4-------4--------------|----------------| 
D|--5-------5-----------5-------5----------3---|---3--3--3--3-5-| 
A|--3-------3-----------2-------2----------3---|---3--3--3--3-5-| 
E|-----------------------------------------1---|---1--1--1--1-3-| 
 | 
e|-12-12-12---12-------10-10-10---10-----8-8-8-|-8--------------| 
B|--8--8--8----8--------8--8--8----8-----8-8-8-|-8--------------| 
G|---------------------------------------------|----------------| 
D|---------------------------------------------|----------------| 
A|---------------------------------------------|----------------| 
E|---------------------------------------------|----------------| 
 | 
e|---------------------10----10---10-10-12-8---|----------------| 
B|--------8----8-10-8--------------------------|----------------| 
G|---------------------------------------------|----------------| 
D|---------------------------------------------|----------------| 
A|---------------------------------------------|----------------| 
E|---------------------------------------------|----------------| 


e|---------------------------------------------|-------------------| 
B|---------------------------------------------|-------------------| 
G|--5-------5-----------4-------4--------------|-------------------| 
D|--5-------5-----------5-------5--------------|---3--3--3--3-5----| 
A|--3-------3-----------2-------2--------------|---3--3--3--3-5----| 
E|---------------------------------------------|---1--1--1--1-3----| 
 | 
e|-12-12-12---12-------10-10-10---10-----8-8-8-|-8-----------------| 
B|--8--8--8----8--------8--8--8----8-----8-8-8-|-8-----------------| 
G|---------------------------------------------|-------------------| 
D|---------------------------------------------|-------------------| 
A|---------------------------------------------|-------------------| 
E|---------------------------------------------|-------------------| 
 | 
e|---------------------10----10---10-10-12-8---|-------------------| 
B|--------8----8-10-8--------------------------|-------------------| 
G|---------------------------------------------|-------------------| 
D|---------------------------------------------|-------------------| 
A|---------------------------------------------|-------------------| 
E|---------------------------------------------|-------------------| 


e|------------------|--------*| 
B|------------------|--------*| 
G|--5--5----4--4----|--------*| 
D|--5--5----5--5--3-|-(3)----*| 
A|--3--3----2--2--3-|-(3)----*| 
E|----------------1-|-(1)----*| 
 | 
e|-12-12---10-10--8-|-(8)----*| 
B|--8--8----8--8--8-|-(8)----*| 
G|------------------|--------*| 
D|------------------|--------*| 
A|------------------|--------*| 
E|------------------|--------*| 


Tablature Legend 
---------------- 
 ()  - tied note 
 PM  - palm mute 
 /\  - slide into or out of (from/to "nowhere") 


Misc Legend 
----------- 
 |  - bar 
||  - double bar 
||o - repeat start 
o|| - repeat end 
*|  - double bar (ending) 

*************************************************************************************** 
* Generated using Power Tab Editor by Brad Larsen - http://powertab.guitarnetwork.org * 
*************************************************************************************** 
  

top 5 | new found glory
top rock'n roll
Outras músicas do artista letras do(a) New Found Glory
Top cifras »Top artistas »
Petaxxon Comunicação Online
Cifras.com.br - Melhor e mais completo site de cifras e tablaturas do Brasil
Mais de 1 milhão de acordes de músicas cadastradas desde 2003
As informações contidas no nosso site são colaborações de seus usuários e podem conter erros, sendo assim, não nos responsabilizamos sobre nenhuma destas.
close
menos
mais
close
Cor dos acordes:

Cor da letra:

 

save
close
close
 
redimensionar