Cifras e Tablaturas
New Medicine

New Medicine

Race You To The Bottom

Cifras Cancelar Versão de Impressão Print

New Medicine - Race You To The Bottom

Tom:

  • 0:00 / 0:00
  			
Intro/verse 

both guitars 
e|-----xxxx-----xxxx----x-x----x-x-| 
B|-----xxxx-----xxxx----x-x----x-x-| 
G|-----xxxx-----xxxx----x-x----x-x-| 
D|-2-4-xxxx-2-4-xxxx-2-4x4x-2-5x5x-|   (4x) 
A|-2-4-xxxx-2-4-xxxx-2-4x4x-2-5x5x-| 
D|-2-4-xxxx-2-4-xxxx-2-4x4x-2-5x5x-| 

both guitars 
e|-----------------------------------------| 
B|-----------------------------------------| 
G|-----------------------------------------| 
D|-4~~~~5~4~~~~5~4~~~~5~4~~~~--------------| 
A|-4~~~~5~4~~~~5~4~~~~5~4~~~~slide up neck-| 
D|-4~~~~5~4~~~~5~4~~~~5~4~~~~--------------| 

hells bells... 

guitar 1 
e|------------------| 
B|------------------| 
G|------------------| 
D|-4--------9-9-7-4-| 
A|-4--------9-9-7-4-| 
D|-4--------9-9-7-4-| 

guitar 2 
e|--------------------| 
B|--------------------| 
G|--------------------| 
D|--------------------| 
A|--------------------| 
D|-4~~~7-9-7-9-10-9-7-| 

guitar 1 
e|---------| 
B|---------| 
G|---------| 
D|-9-9-7-4-| 
A|-9-9-7-4-| 
D|-9-9-7-4-| 

guitar 2 
e|------------------| 
B|------------------| 
G|----------------9^| 
D|------------------| 
A|------------------| 
D|------------------| 

guitar 1 
e|---------| 
B|---------| 
G|---------| 
D|-9-9-7-4-| 
A|-9-9-7-4-| 
D|-9-9-7-4-| 

guitar 2 has another fill here i'm not sure about 

both guitars 
e|-------| 
B|-------| 
G|-------| 
D|-99-77-| 
A|-99-77-| 
D|-99-77-| 

whoa... 

e|-------------------| 
B|-------------------| 
G|-------------------| (3x), mute after last power chord on second time 
D|-4-4-4447-7779-999-| 
A|-4-4-4447-7779-999-| 
D|-4-4-4447-7779-999-| 

e|------------------| 
B|------------------| 
G|------------------| 
D|-9999999977777777-| 
A|-9999999977777777-| 
D|-9999999977777777-| 

e|-----xxxx-----xxxx----x-x----x-x-| 
B|-----xxxx-----xxxx----x-x----x-x-| 
G|-----xxxx-----xxxx----x-x----x-x-| 
D|-2-4-xxxx-2-4-xxxx-2-4x4x-2-5x5x-|   (2x) 
A|-2-4-xxxx-2-4-xxxx-2-4x4x-2-5x5x-| 
D|-2-4-xxxx-2-4-xxxx-2-4x4x-2-5x5x-| 


e|----------------------------------| 
B|----------------------------------| 
G|----------------------------------| 
D|-2-4~~5~4~~~~5~4~~~~--------------| 
A|-2-4~~5~4~~~~5~4~~~~slide up neck-| 
D|-2-4~~5~4~~~~5~4~~~~--------------| 

guitar 1 
e|------------------| 
B|------------------| 
G|------------------| 
D|-4--------9-9-7-4-| 
A|-4--------9-9-7-4-| 
D|-4--------9-9-7-4-| 

guitar 1 
e|---------| 
B|---------| 
G|---------| 
D|-9-9-7-4-| 
A|-9-9-7-4-| 
D|-9-9-7-4-| 

guitar 2 
e|---------------------| 
B|---------------------| 
G|---------------------| 
D|---------------------| 
A|---------------------| 
D|-4~~~~7-9-7-9-10-9-7-| 

guitar 1 
e|---------| 
B|---------| 
G|---------| 
D|-9-9-7-4-| 
A|-9-9-7-4-| 
D|-9-9-7-4-| 

guitar 1 
e|-------| 
B|-------| 
G|-------| 
D|-99-77-| 
A|-99-77-| 
D|-99-77-| 

e|-------------------| 
B|-------------------| 
G|-------------------| (3x) mute after last power chord on second time 
D|-4-4-4447-7779-999-| 
A|-4-4-4447-7779-999-| 
D|-4-4-4447-7779-999-| 

e|--------------------------| 
B|--------------------------| 
G|--------------------------| 
D|-999999997777777777777777-| 
A|-999999997777777777777777-| 
D|-999999997777777777777777-| 


not sure about solo, but is played over: 
e|------------------| 
B|------------------| 
G|------------------| 
D|-4--------9-9-7-4-| 
A|-4--------9-9-7-4-| 
D|-4--------9-9-7-4-| 

e|---------| 
B|---------| 
G|---------| 
D|-9-9-7-4-| 
A|-9-9-7-4-| 
D|-9-9-7-4-| 

e|--------------------------| 
B|--------------------------| 
G|--------------------------| 
D|-9-9-7-4444444444444444-4-| 
A|-9-9-7-4444444444444444-4-| 
D|-9-9-7-4444444444444444-4-| 

e|-------------------| 
B|-------------------| 
G|-------------------| (2x), mute after last power chord on second time 
D|-4-4-4447-7779-999-| 
A|-4-4-4447-7779-999-| 
D|-4-4-4447-7779-999-| 
then 
e|--------------------------------| 
B|--------------------------------| 
G|--------------------------------| 
D|-4-4-4447-7779-9999999977777777-| 
A|-4-4-4447-7779-9999999977777777-| 
D|-4-4-4447-7779-9999999977777777-| 

e|-------------------| 
B|-------------------| 
G|-------------------| (2x), mute after last power chord on second time 
D|-4-4-4447-7779-999-| 
A|-4-4-4447-7779-999-| 
D|-4-4-4447-7779-999-| 
then 
e|----------------------------------------| 
B|----------------------------------------| 
G|----------------------------------------| 
D|-4-4-4447-7779-999999997777777777777777-| 
A|-4-4-4447-7779-999999997777777777777777-| 
D|-4-4-4447-7779-999999997777777777777777-| 

outro 
e|-----xxxx-----xxxx----x-x--------| 
B|-----xxxx-----xxxx----x-x--------| 
G|-----xxxx-----xxxx----x-x--------| 
D|-2-4-xxxx-2-4-xxxx-2-4x4x-2-5555-| 
A|-2-4-xxxx-2-4-xxxx-2-4x4x-2-5555-| 
D|-2-4-xxxx-2-4-xxxx-2-4x4x-2-5555-| 

e|------------------------------| 
B|------------------------------| 
G|------------------------------| 
D|-2-4-xxxxx-xxxxx-xxxxx-55554~-| 
A|-2-4-xxxxx-xxxxx-xxxxx-55554~-| 
D|-2-4-xxxxx-xxxxx-xxxxx-55554~-| 
    	

enviado porenviado por: joaoewerton
cifra enviadaCorrigida por: sem correções
logo top cifrasComente
ico música do artistaMúsicas deste artista
ico curtiuCurtiu?
ico destaqueDestaque
Petaxxon Comunicação Online

Cifras.com.br - Melhor e mais completo site de cifras e tablaturas do Brasil Mais de 1 milhão de acordes de músicas cadastradas desde 2003
As informações contidas no nosso site são colaborações de seus usuários e podem conter erros, sendo assim, não nos responsabilizamos sobre nenhuma destas.

close
menos
mais
close
Cor dos acordes:

Cor da letra:

close
Alinhar acordes a direita Alinhar acordes a esquerda Alinhar acordes em baixo Alinhar acordes no topo
close
  Mostrar todos os acordes Esconder acordes muito fáceis Esconder acordes fáceis Esconder acordes intermediários
redimensionar
glossário