Cifras e Tablaturas
Nívea Soares

Nívea Soares

Enche me de Ti

Ano: 2005
Album : Enche-me de Ti

Cifras Cancelar Versão de Impressão

Nívea Soares - Enche me de Ti

Tom: C

  			/ - slide up  
\ - slide down  
b - bend  
rb- reverse bend 
h - hammer on  
p - pull off  
~ - vibrato  

E-|-----------------------------------------------------------------------------|  
A-|-----------------------------------------------------------------------------|  
D-|-------------------------------------------------10-10-------------10-10-----| 
G-|-----------------/8------------8---------8-------------------10--------------|  
B-|----/8~--h11p8~~---6-6b(8)rb6----8/9-6------6-8--------8h9p8----8------------|  
E-|-----------------------------------------------------------------------------| 
  
E-|-----------------------------------------------------------------------------|  
A-|-----------------------------------------------------------------------------|  
D-|-----------------------------------------------------------------------------| 
G-|----8-10-10/12----12----12---------------------------------------------------|  
B-|---------------11----11----11-11b(13)11b(13)---8-----------------8-----------|  
E-|--------------------------------------------------10b(11)rb10--8-------------| 

E-|-----------------------------------------------------------------------------|  
A-|-------------------------------------------------653-3-5-6-8--10-11-13-14-15-|  
D-|----------------------------------------------653----5-7-8-10-12-13-15-16-17-| 
G-|---------------8-8-8------------8-8-8-------53-------------------------------|  
B-|----11/13-11-----------9/11-9------------------------------------------------|  
E-|-----------------------------------------------------------------------------| 

Pablo George Almeida Costa 
Qualquer Dúvida: [email protected] 
Deus Te Abençoe 

    	
fixar
fixar inscrever-se

enviado porenviado por: PabloGeorge
cifra enviadaCorrigida por: sem correções
logo top cifrasComente
ico música do artistaMúsicas deste artista
ico curtiuCurtiu?
ico destaqueDestaque
Petaxxon Comunicação Online

Cifras.com.br - Melhor e mais completo site de cifras e tablaturas do Brasil Mais de 1 milhão de acordes de músicas cadastradas desde 2003
As informações contidas no nosso site são colaborações de seus usuários e podem conter erros, sendo assim, não nos responsabilizamos sobre nenhuma destas.

close
menos
mais
close
Cor dos acordes:

Cor da letra:

close
Alinhar acordes a direita Alinhar acordes a esquerda Alinhar acordes em baixo Alinhar acordes no topo
close
  Mostrar todos os acordes Esconder acordes muito fáceis Esconder acordes fáceis Esconder acordes intermediários
redimensionar
glossário