Cifras e Tablaturas
Noel Rosa

Noel Rosa

Conversa de botequim

Compositor : (Noel Rosa / Vadico)

Cifras Cancelar Versão de Impressão
cifras

Noel Rosa - Conversa de botequim

fixar na tela  
Exibindo: vídeo-aula ver clipes redimensionar
  
---------------------------------------------------------------- 
---8------5------5------5------8------5------5------5----------- 
---7------6------5------5------7------6------5------5----------- 
---5------5------5------5------5------5------5------5----------- 
---------------0----0-5----5---------------0----0-5------------- 
-7----7-6----6---------------7----7-6----6---------------------- 


-------------------3-------------3------3-------3--------------- 
-----5------5------3------2------1------5------3---------------- 
-----4------3------0------0------0------5-----4----------------- 
-----2------5-------------2-----------0----0-5------------------ 
-0-3----3-4----4-2----2-1----1-0----0--------------------------- 
---------------------------------------------------------------- 




-----0----3p0--------------------------------------------------- 
---3-----------3-0----------------3--3-------------------------- 
--------------------------------5----------0-------------------- 
----------------------7--7----4-----------0--------------------- 
-2------1-----------0-------5----------------------------------- 
----------------------------------------3----------------------- 



-----0----3p0---------------------1--0-------------------------- 
---3-----------3-0----------3--3--3-----------3----------------- 
----------------------------5-----2---------0------------------- 
----------------------7--7--4-----0-------0--------------------- 
-2------1-----------0-------5----------------------------------- 
----------------------------------------3----------------------- 



--------3--3-3-3--3--3--3--------------------------------------- 
--------1---------5-----5--------------------------------------- 
-0-0-0--0---------5-----4--------------------------------------- 
------------------0--------------------------------------------- 
--------3---------------4--------------------------------------- 
---------------------------------------------------------------- 






-2p0----------------------------2----0-------------------------- 
-----3-1-0----2------0-1--2---2---------3----------------------- 
-----------2-------2--------2----------------------------------- 
-----------------------------------0---------------------------- 
----------------0----------------------------------------------- 
------------------------------------------2--------------------- 




-----3--0---------0--0----------0--------0----1--0-------------- 
----1-----3-1----------3-1-----1-----1-3-----------3-1--0------- 
---0--------------------------2---------------------------2---1- 
--2--------------------------2-------------3-----------------2-- 
-3-------------2~-----------0----------------------------------- 
-----------------------------------3------------------------0--- 




-0-------------------------------------------------------------- 
--------1-2--3-------------------------------------------------- 
----2--------2-------------------------------------------------- 
----2--------0-------------------------------------------------- 
---------------------------------------------------------------- 
----3--------2-------------------------------------------------- 




-0---0---0------------------------------------------------------ 
---3---3----3--1-0-1-----3-------------------------------------- 
------------2-----------4--------------------------------------- 
------------3----------3---------------------------------------- 
---------------------------------------------------------------- 
------------1---------3----------------------------------------- 




-0---0---0----3-1-0--------------------------------------------- 
---3---3-------------3-1------0--1------------------------------ 
------------0-------------0-2----0------------------------------ 
---------------------------------2------------------------------ 
---------------------------------3------------------------------ 
---------------------------------------------------------------- 




---------------------------------------------------------------- 
-----1--------3--------1--------3--------1--------3--------1---- 
---0--------0----------0--------0--------------------------0---- 
---------------------2--------0--------2--------0--------2------ 
-3------3-2------2-0------0----------3------3-2------2-0-------- 
----------------------------3------3---------------------------- 


---------------------------------------------------------------- 
-------3--------8--------5--------5--------5--------8--------5-- 
-------2--------7--------6--------5--------5--------7--------6-- 
-----0--------5--------5--------5--------5--------5--------5---- 
-0----------------------------0------0-5------5----------------- 
---2------2-7------7-6------6-------------------7------7-6------ 


---------------------------------------------------------------- 
-------5--------5--------5--------5--------3--------2-------1--- 
-------5--------5--------4--------3--------0--------0------0---- 
-----5--------5--------2--------5--------3--------2-------2----- 
---0------0-5------5-3------3-4------4-2------2-1-----1-0------- 
-6-------------------------------------------------------------- 


---3----------3------------------------------------------------- 
---5----5----3-------------------------------------------------- 
---5--5-----3--------------------------------------------------- 
-0---------5---------------------------------------------------- 
---------------------------------------------------------------- 
---------------------------------------------------------------- 
  

top 5 | noel rosa
top velha guarda
Outras músicas do artista letras do(a) Noel Rosa
Top cifras »Top artistas »
Petaxxon Comunicação Online
Cifras.com.br - Melhor e mais completo site de cifras e tablaturas do Brasil
Mais de 1 milhão de acordes de músicas cadastradas desde 2003
As informações contidas no nosso site são colaborações de seus usuários e podem conter erros, sendo assim, não nos responsabilizamos sobre nenhuma destas.
close
menos
mais
close
Cor dos acordes:

Cor da letra:

 

save
close
close
 
redimensionar