Cifras e Tablaturas
Cifras Cancelar Versão de Impressão
cifras

Of Mice & Men - Away

fixar na tela  
Exibindo: vídeo-aula ver clipes redimensionar

Tom:

C

ver outros tons
  
Tuning: Drop C 

Intro: Part 1 (Clean) 
================================================================================================== 
D|------------------------------------------------------------------------------------------------ 
A|------------------------------------------------------------------------------------------------ 
F|------------------------------------------------------------------------------------------------ 
C|---2-------2---2h3p2-------2---------2-------2---2h3p3-------2---------------------------------- 
G|-------0---------------0-------0---------0---------------0-------0---(x2)----------------------- 
C|-3---3---3---3-------3---3---3---3-0---0---0---0-------0---0---0---0---------------------------- 

Intro: Part 2 (Distortion) 
================================================================================================== 
D|------------------------------------------------------------------------------------------------ 
A|------------------------------------------------------------------------------------------------ 
F|------------------------------------------------------------------------------------------------ 
C|-5-5-5-5-5-5-5-5-5-5-5-5-7-7-7-7-7-7-7-7-7-7-7-7------------------------------------------------ 
G|-3-3-3-3-3-3-3-3-3-3-3-3-5-5-5-5-5-5-5-5-5-5-5-5--(x2)------------------------------------------ 
C|-3-3-3-3-3-3-3-3-3-3-3-3-5-5-5-5-5-5-5-5-5-5-5-5------------------------------------------------ 

verse 1: Part 1 (Clean) 
================================================================================================== 
D|------------------------------------------------------------------------------------------------ 
A|------------------------------------------------------------------------------------------------ 
F|------------------------------------------------------------------------------------------------ 
C|---2-------2---2h3p2-------2---------2-------2---2h3p3-------2---------------------------------- 
G|-------0---------------0-------0---------0---------------0-------0---(x2)----------------------- 
C|-3---3---3---3-------3---3---3---3-0---0---0---0-------0---0---0---0---------------------------- 

  
verse 1: Part 2 (Distortion) 
================================================================================================== 
D|------------------------------------------------------------------------------------------------ 
A|------------------------------------------------------------------------------------------------ 
F|------------------------------------------------------------------------------------------------ 
C|---2-------2---2h3p2-------2---------2-------2---2h3p3-------2---------------------------------- 
G|-------0---------------0-------0---------0---------------0-------0---(x2)----------------------- 
C|-3---3---3---3-------3---3---3---3-0---0---0---0-------0---0---0---0---------------------------- 
PM . . . . . . .       . . . . . . . . . . . .   .       . . . . . . . 

Pre-Chorus 1: (Distortion) 
================================================================================================== 
D|------------------------------------------------------------------------------------------------ 
A|------------------------------------------------------------------------------------------------ 
F|------------------------------------------------------------------------------------------------ 
C|-10-10-10-10-10-10-10-10-10-10-10-10-10-0-0-0-0-0-0-0-0-0-0-0-0-5-5-5-5-5-5-5-5-5-5-5-5--------- 
G|-8--8--8--8--8--8--8--8--8--8--8--8--8--0-0-0-0-0-0-0-0-0-0-0-0-5-5-5-5-5-5-5-5-5-5-5-5--------- 
C|-8--8--8--8--8--8--8--8--8--8--8--8--8--0-0-0-0-0-0-0-0-0-0-0-0-5-5-5-5-5-5-5-5-5-5-5-5--------- 

D|------------------------------------------------------------------------------------------------ 
A|------------------------------------------------------------------------------------------------ 
F|------------------------------------------------------------------------------------------------ 
C|-10-10-10-10-10-10-10-10-10-10-10-10-10-10-10-10-10-10-10-10-10-10-10-10-10--------------------- 
G|-8--8--8--8--8--8--8--8--8--8--8--8--8--10-10-10-10-10-10-10-10-10-10-10-10--------------------- 
C|-8--8--8--8--8--8--8--8--8--8--8--8--8--10-10-10-10-10-10-10-10-10-10-10-10--------------------- 


Chorus: (Distortion) 
================================================================================================== 
D|------------------------------------------------------------------------------------------------ 
A|------------------------------------------------------------------------------------------------ 
F|------------------------------------------------------------------------------------------------ 
C|-5-5-5-5-5-5-5-5-5-5-5-5-7-7-7-7-7-7-7-7-7-7-7-7------------------------------------------------ 
G|-3-3-3-3-3-3-3-3-3-3-3-3-5-5-5-5-5-5-5-5-5-5-5-5--(x2)------------------------------------------ 
C|-3-3-3-3-3-3-3-3-3-3-3-3-5-5-5-5-5-5-5-5-5-5-5-5------------------------------------------------ 

verse 2: Part 1 (Clean) 
================================================================================================== 
D|------------------------------------------------------------------------------------------------ 
A|------------------------------------------------------------------------------------------------ 
F|------------------------------------------------------------------------------------------------ 
C|---2-------2---2h3p2-------2---------2-------2---2h3p3-------2---------------------------------- 
G|-------0---------------0-------0---------0---------------0-------0---(x2)----------------------- 
C|-3---3---3---3-------3---3---3---3-0---0---0---0-------0---0---0---0---------------------------- 
  
verse 2: Part 2 (Distortion)/ 
================================================================================================== 
D|------------------------------------------------------------------------------------------------ 
A|------------------------------------------------------------------------------------------------ 
F|------------------------------------------------------------------------------------------------ 
C|---2-------2---2h3p2-------2---------2-------2---2h3p3-------2------------5-5/10-10---0-0------- 
G|-------0---------------0-------0---------0---------------0-------0---(x2)-5-5/10-10---0-0------- 
C|-3---3---3---3-------3---3---3---3-0---0---0---0-------0---0---0---0------5-5/10-10---0-0------- 
PM . . . . . . .       . . . . . . . . . . . .   .       . . . . . . . 

Pre-Chorus 2: (Distortion) 
================================================================================================== 
D|------------------------------------------------------------------------------------------------ 
A|------------------------------------------------------------------------------------------------ 
F|------------------------------------------------------------------------------------------------ 
C|-10-10-10-10-10-10-10-10-10-10-10-10-10-0-0-0-0-0-0-0-0-0-0-0-0-5-5-5-5-5-5-5-5-5-5-5-5--------- 
G|-8--8--8--8--8--8--8--8--8--8--8--8--8--0-0-0-0-0-0-0-0-0-0-0-0-5-5-5-5-5-5-5-5-5-5-5-5--------- 
C|-8--8--8--8--8--8--8--8--8--8--8--8--8--0-0-0-0-0-0-0-0-0-0-0-0-5-5-5-5-5-5-5-5-5-5-5-5--------- 

D|------------------------------------------------------------------------------------------------ 
A|------------------------------------------------------------------------------------------------ 
F|------------------------------------------------------------------------------------------------ 
C|-10-10-10-10-10-10-10-10-10-10-10-10-10-10-10-10-10-10-10-10-10-10-10-10-10--------------------- 
G|-8--8--8--8--8--8--8--8--8--8--8--8--8--10-10-10-10-10-10-10-10-10-10-10-10-(x2-)---------------- 
C|-8--8--8--8--8--8--8--8--8--8--8--8--8--10-10-10-10-10-10-10-10-10-10-10-10--------------------- 

Bridge: (Distortion) 
================================================================================================== 
D|------------------------------------------------------------------------------------------------ 
A|------------------------------------------------------------------------------------------------ 
F|-7--7--7--7--7-7--5--5--5--5--5-5--------------------------------------------------------------- 
C|-7--7--7--7--7-7--5--5--5--5--5-5--5--5--5--5--5-5--7--7--7--7--7-7----------------------------- 
G|-5--5--5--5--5-5--3--3--3--3--3-3--3--3--3--3--3-3--5--5--5--5--5-5-(x2)------------------------ 
C|-----------------------------------3--3--3--3--3-3--5--5--5--5--5-5----------------------------- 

D|------------------------------------------------------------------------------------------------ 
A|------------------------------------------------------------------------------------------------ 
F|-7-7-7-7-7-7-7-7-7-7-7-7-5-5-5-5-5-5-5-5-5-5-5-5------------------------------------------------ 
C|-7-7-7-7-7-7-7-7-7-7-7-7-5-5-5-5-5-5-5-5-5-5-5-5-5-5-5-5-5-5-5-5-5-5-5-5-7-7-7-7-7-7-7-7-7-7-7-7 
G|-5-5-5-5-5-5-5-5-5-5-5-5-3-3-3-3-3-3-3-3-3-3-3-3-3-3-3-3-3-3-3-3-3-3-3-3-5-5-5-5-5-5-5-5-5-5-5-5 (x2) 
C|-------------------------------------------------3-3-3-3-3-3-3-3-3-3-3-3-5-5-5-5-5-5-5-5-5-5-5-5 


Pre-Chorus 3: (Distortion) 
================================================================================================== 
D|------------------------------------------------------------------------------------------------ 
A|------------------------------------------------------------------------------------------------ 
F|------------------------------------------------------------------------------------------------ 
C|----------------------------------------0-0-0-0-0-0-0-0-0-0-0-0-5-5-5-5-5-5-5-5-5-5-5-5--------- 
G|----------------------------------------0-0-0-0-0-0-0-0-0-0-0-0-5-5-5-5-5-5-5-5-5-5-5-5--------- 
C|-------------Pick-Slide---------------0-0-0-0-0-0-0-0-0-0-0-0-5-5-5-5-5-5-5-5-5-5-5-5--------- 

D|------------------------------------------------------------------------------------------------ 
A|------------------------------------------------------------------------------------------------ 
F|------------------------------------------------------------------------------------------------ 
C|-10-10-10-10-10-10-10-10-10-10-10-10-10-10-10-10-10-10-10-10-10-10-10-10-10--------------------- 
G|-8--8--8--8--8--8--8--8--8--8--8--8--8--10-10-10-10-10-10-10-10-10-10-10-10--------------------- 
C|-8--8--8--8--8--8--8--8--8--8--8--8--8--10-10-10-10-10-10-10-10-10-10-10-10--------------------- 

D|------------------------------------------------------------------------------------------------ 
A|------------------------------------------------------------------------------------------------ 
F|------------------------------------------------------------------------------------------------ 
C|-10-10-10-10-10-10-10-10-10-10-10-10-10-0-0-0-0-0-0-0-0-0-0-0-0-5-5-5-5-5-5-5-5-5-5-5-5--------- 
G|-8--8--8--8--8--8--8--8--8--8--8--8--8--0-0-0-0-0-0-0-0-0-0-0-0-5-5-5-5-5-5-5-5-5-5-5-5--------- 
C|-8--8--8--8--8--8--8--8--8--8--8--8--8--0-0-0-0-0-0-0-0-0-0-0-0-5-5-5-5-5-5-5-5-5-5-5-5--------- 

D|------------------------------------------------------------------------------------------------ 
A|------------------------------------------------------------------------------------------------ 
F|------------------------------------------------------------------------------------------------ 
C|-10-10-10-10-10-10-10-10-10-10-10-10-10-10-10-10-10-10-10-10-10-10-10-10-10--------------------- 
G|-8--8--8--8--8--8--8--8--8--8--8--8--8--10-10-10-10-10-10-10-10-10-10-10-10--------------------- 
C|-8--8--8--8--8--8--8--8--8--8--8--8--8--10-10-10-10-10-10-10-10-10-10-10-10--------------------- 


Chorus/Outro: (Distortion) 
================================================================================================== 
D|------------------------------------------------------------------------------------------------ 
A|------------------------------------------------------------------------------------------------ 
F|------------------------------------------------------------------------------------------------ 
C|-5-5-5-5-5-5-5-5-5-5-5-5-7-7-7-7-7-7-7-7-7-7-7-7------------------------------------------------ 
G|-3-3-3-3-3-3-3-3-3-3-3-3-5-5-5-5-5-5-5-5-5-5-5-5--(x4)------------------------------------------ 
C|-3-3-3-3-3-3-3-3-3-3-3-3-5-5-5-5-5-5-5-5-5-5-5-5------------------------------------------------ 

TAB LEGEND: 
PM. = Palm Mute 
h = Hammer on 
p = Pull off 
  

top 5 | of mice & men
top thrash metal
Outras músicas do artista letras do(a) Of Mice & Men
Top cifras »Top artistas »
Petaxxon Comunicação Online
Cifras.com.br - Melhor e mais completo site de cifras e tablaturas do Brasil
Mais de 1 milhão de acordes de músicas cadastradas desde 2003
As informações contidas no nosso site são colaborações de seus usuários e podem conter erros, sendo assim, não nos responsabilizamos sobre nenhuma destas.
close
menos
mais
close
Cor dos acordes:

Cor da letra:

 

save
close
close
 
redimensionar