Cifras e Tablaturas
Of Mice & Men

Of Mice & Men

Relentless

Cifras Cancelar Versão de Impressão
cifras

Of Mice & Men - Relentless

fixar na tela  
Exibindo: vídeo-aula ver clipes redimensionar

Tom:

  
Intro 
e|---------------------------------------------------------------------------| 
B|---------------------------------------------------------------------------| 
G|---------------------------------------------------------------------------| 
D|-0------------------------------xxx--x---x---------------------------------| 
A|-0------------------------------xxx--x---x---------------------------------| 
E|-0------------------------------xxx--x---x---------------------------------| 

e|---------------------------------------------------------------------------| 
B|---------------------------------------------------------------------------| 
G|------------------------------------------------5/7------------------------| 
D|------------------------------------------------x/x------------------------| 
A|------------------------------------------------3/5------------------------| 
E|-30-00--3-00-0---3-000---3--000---3-000--30---x----------------------------| 

e|---------------------------------------------------------------------------| 
B|---------------------------------------------------------------------------| 
G|---------------------------------------------------------------------------| 
D|---------------------------------------------------------------------------| 
A|--------------------------------/5-3---------------------------------------| 
E|-30-00--3-00-0---3-000--0~-0~---------/6--5--3-----------------------------| 

Verse 
GTAR1 
e|---------------------------------------------------------------------------| 
B|---------------------------------------------------------------------------| 
G|---------------------------------------------------------------------------| 
D|---------------------------------------------------------------------------| 
A|---------------------------------------------------------------------------| 
E|-3-000---3-00--3-000-------------------------------------------------------| 

GTAR2 
e|---------------------------------------------------------------------------| 
B|---------------------------------------------------------------------------| 
G|---------------------------------------------------------------------------| 
D|---------------------------------------------------------------------------| 
A|-355555-355555-3555--366666--366666--3666----------------------------------| 
E|---------------------------------------------------------------------------| 

PreChorus 
e|---------------------------------------------------------------------------| 
B|---------------------------------------------------------------------------| 
G|---------------------------------------------------------------------------| 
D|--6/---xx---6/-------------------------------------------------------------| 
A|--6/---xx---6/-------------------------------------------------------------|x4 
E|--6/---xx---6/-------------------------------------------------------------| 
The first preChorus leave out the last chord 

Chorus 
e|---------------------------------------------------------------------------| 
B|---------------------------------------------------------------------------| 
G|--11--12-------14-------------11--12--------10-----------------------------| 
D|--x----x--------x-------------x----x--------x------------------------------| 
A|--9---10-------12-------------9---10--------8------------------------------|x2 
E|---------------------------------------------------------------------------| 
second time end on: 
e|---------------------------------------------------------------------------| 
B|---------------------------------------------------------------------------| 
G|-------9-------------------------------------------------------------------| 
D|-------x-------------------------------------------------------------------| 
A|-------7-------------------------------------------------------------------| 
E|---------------------------------------------------------------------------| 

postChorus 
Intro riff with these harmonics 
e|---------------------------------------------------------------------------| 
B|---------------------------------------------------------------------------| 
G|-------*7*-----------------------------------------------------------------| 
D|---------------------------------------------------------------------------| 
A|---------------------------------------------------------------------------| 
E|---------------------------------------------------------------------------| 



************************************ 

| x  Dead note 
| /  Slide up 
| ~  Vibrato 
  

************************************ 
  

top 5 | of mice & men
top thrash metal
Outras músicas do artista letras do(a) Of Mice & Men
Top cifras »Top artistas »
Petaxxon Comunicação Online
Cifras.com.br - Melhor e mais completo site de cifras e tablaturas do Brasil
Mais de 1 milhão de acordes de músicas cadastradas desde 2003
As informações contidas no nosso site são colaborações de seus usuários e podem conter erros, sendo assim, não nos responsabilizamos sobre nenhuma destas.
close
menos
mais
close
Cor dos acordes:

Cor da letra:

 

save
close
close
 
redimensionar