Cifras e Tablaturas
Of Mice & Men

Of Mice & Men

Sunflower

Cifras Cancelar Versão de Impressão

Of Mice & Men - Sunflower

Tom:

  			Intro 

D|--------------|--------------|--------------|------------------------------| 
A|--------6-5---|--------6-8---|--------6-5---|------------------------------| 
F|------7-----5-|------7-----9-|------7-----5-|----5---------9---------------| 
C|0-0-0---------|0-0-0---------|0-0-0---------|8-8---8-10-10---10------------| 
G|--------------|--------------|--------------|------------------------------| 
C|--------------|--------------|--------------|------------------------------| 
This riff is palyed over and over until the pre Chorus and is palm muted.   

Pre Chourus 

D|---------------------------------------------------------------------------| 
A|---------------------------------------------------------------------------| 
F|---------------------------------------------------------------------------| 
C|8---10---5-----------------------------------------------------------------| 
G|8---10---5-----------------------------------------------------------------| 
C|8---10---5-----------------------------------------------------------------| 
Each chord is only palyed once.  

Chorus 

D|---------------------------------------------------------------------------| 
A|---------------------------------------------------------------------------| 
F|17---12---14---15----------------------------------------------------------| 
C|x----x----x----x----0------------------------------------------------------| 
G|15---10---12---13---0------------------------------------------------------| 
C|--------------------0------------------------------------------------------| 
Listen to how long the octaves are palyed by following the song. After that there are 0's going back and forth 
between regular strumming and palm mutes so again, listen to the song. Play the whole part twice.  

Post Chorus 

D|---------------------------------------------------------------------------| 
A|---------------------------------------------------------------------------| 
F|---------------------------------------------------------------------------| 
C|0--------------------------------------------------------------------------| 
G|0---3----------------------------------------------------------------------| 
C|0--------------------------------------------------------------------------| 
Another round of 0's with regualr strumming and palm mutes follwed by a bent pinch harmanoic on the third fret 
of the fifth string.  

Repeat verse once then rest for the bass part. Pick up again after it's over and play until the Chorus starts. 
Don't play the pre Chorus.  

Repeat the Chorus and post Chorus. There's a little break in the bridge. Can't really tell whats going on but 
this is what I play over and over again. If you can figure out what's really going on in this part, feel free  
to post in the comments.  

D|---------------------------------------------------------------------------| 
A|---------------------------------------------------------------------------| 
F|--9------------------------------------------------------------------------| 
C|---------------------------------------------------------------------------| 
G|7--------------------------------------------------------------------------| 
C|---------------------------------------------------------------------------| 

Reapt Chorus all the way till the end of the song, no post Chorus. 

************************************ 

| x  Dead note 

************************************ 
    	
fixar
fixar inscrever-se

enviado porenviado por: lucicamargo
cifra enviadaCorrigida por: sem correções
logo top cifrasComente
ico música do artistaMúsicas deste artista
ico curtiuCurtiu?
ico destaqueDestaque
Petaxxon Comunicação Online

Cifras.com.br - Melhor e mais completo site de cifras e tablaturas do Brasil Mais de 1 milhão de acordes de músicas cadastradas desde 2003
As informações contidas no nosso site são colaborações de seus usuários e podem conter erros, sendo assim, não nos responsabilizamos sobre nenhuma destas.

close
menos
mais
close
Cor dos acordes:

Cor da letra:

close
Alinhar acordes a direita Alinhar acordes a esquerda Alinhar acordes em baixo Alinhar acordes no topo
close
  Mostrar todos os acordes Esconder acordes muito fáceis Esconder acordes fáceis Esconder acordes intermediários
redimensionar
glossário