Cifras e Tablaturas
Oh, Sleeper

Oh, Sleeper

Breathing Blood

Cifras Cancelar Versão de Impressão
cifras

Oh, Sleeper - Breathing Blood

fixar na tela  
Exibindo: vídeo-aula ver clipes redimensionar
  
Tuning: C G C F A D 
 


Ra Ra Ra - 00:00 - 00:23 

Riff 1, Guitar 1 & 2 - 00:12 - 00:23 
- --------------------------------------------------------------------------------- 
- --------------------------------------------------------------------------------- 
- --------------------------------------------------------------------------------- 
- --------------------------------------------------------------------------------- 
- -1-1-1-1-1-1-1-1-1-1-1-1-1-1-1-1-0--0--0--0--0--0--1--1--1--1--1--1--1--1--1--1-- 
- -5-5-5-5-5-5-5-5-5-5-5-5-5-5-5-5-5--5--5--5--5--5--5--5--5--5--5--5--5--5--5--5-- 
- 
- --------------------------------------------------------------------------------- 
- -8-8-8-8-8-8-8-8-8-8-8-8-8-8-8-8-10-10-10-10-10-10-11-11-11-11-11-11-11-11-11-11- 
- -x-x-x-x-x-x-x-x-x-x-x-x-x-x-x-x-x--x--x--x--x--x--x--x--x--x--x--x--x--x--x--x-- 
- -5-5-5-5-5-5-5-5-5-5-5-5-5-5-5-5-7--7--7--7--7--7--8--8--8--8--8--8--8--8--8--8-- 
- --------------------------------------------------------------------------------- 
- --------------------------------------------------------------------------------- 


- --------------------------------------------------------------------------------- 
- --------------------------------------------------------------------------------- 
- --------------------------------------------------------------------------------- 
- -1-1-1-1-1-1-1-1-1-1-1-1-1-1-1-1-0----------------------------------------------- 
- -x-x-x-x-x-x-x-x-x-x-x-x-x-x-x-x-0----------------------------------------------- 
- -1-1-1-1-1-1-1-1-1-1-1-1-1-1-1-1-0----------------------------------------------- 
- 
- --------------------------------------------------------------------------------- 
- --------------------------------------------------------------------------------- 
- -8-8-8-8-8-8-8-8-8-8-8-8-8-8-8-8------------------------------------------------- 
- -x-x-x-x-x-x-x-x-x-x-x-x-x-x-x-x-0----------------------------------------------- 
- -6-6-6-6-6-6-6-6-6-6-6-6-6-6-6-6-0----------------------------------------------- 
- ---------------------------------0----------------------------------------------- 


Riff 2, Guitar 1 & 2 - 00:23 - 00:46 
- ------------------------------------------------------------------------------------------------- 
- ------------------------------------------------------------------------------------------------- 
- -------------------------------------------------7--7--7--7--7--7--7--7--7--7--7--7--7--7--7--7-- 
- -8--8--8--8--8--8--8--8--8--8--8--8--8--8--8--8--x--x--x--x--x--x--x--x--x--x--x--x--x--x--x--x-- 
- -5--5--5--5--5--5--5--5--5--5--5--5--5--5--5--5--5--5--5--5--5--5--5--5--5--5--5--5--5--5--5--5-- 
- -5--5--5--5--5--5--5--5--5--5--5--5--5--5--5--5-------------------------------------------------- 
- 
- ------------------------------------------------------------------------------------------------- 
- -11-11-11-11-11-11-11-11-11-11-11-11-11-11-11-11------------------------------------------------- 
- -x--x--x--x--x--x--x--x--x--x--x--x--x--x--x--x--10-10-10-10-10-10-10-10-10-10-10-10-10-10-10-10- 
- -8--8--8--8--8--8--8--8--8--8--8--8--8--8--8--8--x--x--x--x--x--x--x--x--x--x--x--x--x--x--x--x-- 
- -------------------------------------------------8--8--8--8--8--8--8--8--8--8--8--8--8--8--8--8-- 
- ------------------------------------------------------------------------------------------------- 


- ------------------------------------------------------------------------------------------------- 
- ------------------------------------------------------------------------------------------------- 
- -7--7--7--7--7--7--7--7--7--7--7--7--7--7--7--7-------------------------------------------------- 
- -10-10-10-10-10-10-10-10-10-10-10-10-10-10-10-10-8--8--8--8--8--8--8--8--0--0--0--0--0--0--0--0-- 
- -6--6--6--6--6--6--6--6--6--6--6--6--6--6--6--6--x--x--x--x--x--x--x--x--0--0--0--0--0--0--0--0-- 
- -------------------------------------------------8--8--8--8--8--8--8--8--0--0--0--0--0--0--0--0-- 
-  
- ------------------------------------------------------------------------------------------------- 
- -------------------------------------------------15-15-15-15-15-15-15-15-13-13-13-13-13-13-13-13- 
- -12-12-12-12-12-12-12-12-12-12-12-12-12-12-12-12-x--x--x--x--x--x--x--x--x--x--x--x--x--x--x--x-- 
- -x--x--x--x--x--x--x--x--x--x--x--x--x--x--x--x--12-12-12-12-12-12-12-12-10-10-10-10-10-10-10-10- 
- -10-10-10-10-10-10-10-10-10-10-10-10-10-10-10-10------------------------------------------------- 
- ------------------------------------------------------------------------------------------------- 


- ------------------------------------------------------------------------------------------------- 
- ------------------------------------------------------------------------------------------------- 
- -------------------------------------------------7--7--7--7--7--7--7--7--7--7--7--7--7--7--7--7-- 
- -8--8--8--8--8--8--8--8--8--8--8--8--8--8--8--8--x--x--x--x--x--x--x--x--x--x--x--x--x--x--x--x-- 
- -5--5--5--5--5--5--5--5--5--5--5--5--5--5--5--5--5--5--5--5--5--5--5--5--5--5--5--5--5--5--5--5-- 
- -5--5--5--5--5--5--5--5--5--5--5--5--5--5--5--5-------------------------------------------------- 
- 
- ------------------------------------------------------------------------------------------------- 
- -11-11-11-11-11-11-11-11-11-11-11-11-11-11-11-11------------------------------------------------- 
- -x--x--x--x--x--x--x--x--x--x--x--x--x--x--x--x--10-10-10-10-10-10-10-10-10-10-10-10-10-10-10-10- 
- -8--8--8--8--8--8--8--8--8--8--8--8--8--8--8--8--x--x--x--x--x--x--x--x--x--x--x--x--x--x--x--x-- 
- -------------------------------------------------8--8--8--8--8--8--8--8--8--8--8--8--8--8--8--8-- 
- ------------------------------------------------------------------------------------------------- 


- ------------------------------------------------------------------------------------------------- 
- ------------------------------------------------------------------------------------------------- 
- -7--7--7--7--7--7--7--7--7--7--7--7--7--7--7--7-------------------------------------------------- 
- -10-10-10-10-10-10-10-10-10-10-10-10-10-10-10-10-8--8--8--8--8--8--8--8--0--0--0--0--0--0--0--5-- 
- -6--6--6--6--6--6--6--6--6--6--6--6--6--6--6--6--x--x--x--x--x--x--x--x--0--0--0--0--0--0--0--5-- 
- -------------------------------------------------8--8--8--8--8--8--8--8--0--0--0--0--0--0--0--5-- 
-  
- ------------------------------------------------------------------------------------------------- 
- -------------------------------------------------15-15-15-15-15-15-15-15-13-13-13-13-13-13-13---- 
- -12-12-12-12-12-12-12-12-12-12-12-12-12-12-12-12-x--x--x--x--x--x--x--x--x--x--x--x--x--x--x----- 
- -x--x--x--x--x--x--x--x--x--x--x--x--x--x--x--x--12-12-12-12-12-12-12-12-10-10-10-10-10-10-10-5-- 
- -10-10-10-10-10-10-10-10-10-10-10-10-10-10-10-10----------------------------------------------5-- 
- ----------------------------------------------------------------------------------------------5-- 


Riff 3, Guitar 1 & 2 - 00:46 - 01:11 
- --------------------------------------------------------------------- 
- ----------10-------------------------10------------------------------ 
- -------------7--------------------------7-----------------7------7--- 
- --------8------8-5--------5--------8------8-5--------8h10---10-----1- 
- ---8/10----------5---8/10-5---8/10----------5---8/10-----------6---1- 
- -----------------5--------5-----------------5----------------------1- 
- 
- --------------------------------------------------------------------- 
- ----------10-------------------------10------------------------------ 
- -------------7--------------------------7-----------------7------7--- 
- --------8------8-5--------5--------8------8-5--------8h10---10-----1- 
- ---8/10----------5---8/10-5---8/10----------5---8/10-----------6---1- 
- -----------------5--------5-----------------5----------------------1- 


- --------------------------------------------------------- 
- ---------3---------------------------6------------------- 
- ---2-3/5---5-------2h3---------3-5/7---7-5p3-----3------- 
- -------------3-1-------1---3/5---------------3h5---5p3-5- 
- ---------------1-------1-------------------------------5- 
- ---------------1-------1-------------------------------5- 
- 
- --------------------------------------------------------- 
- ---------3---------------------------6------------------- 
- ---2-3/5---5-------------------3-5/7---7-5p3-----3------- 
- -------------3-1---3h5-1---3/5---------------3h5---5p3-5- 
- ---------------1-------1-------------------------------5- 
- ---------------1-------1-------------------------------5- 

- --------------------------------------------------------------------- 
- ----------10-------------------------10------------------------------ 
- -------------7--------------------------7-----------------7------7--- 
- --------8------8-5--------5--------8------8-5--------8h10---10-----1- 
- ---8/10----------5---8/10-5---8/10----------5---8/10-----------6---1- 
- -----------------5--------5-----------------5----------------------1- 
- 
- --------------------------------------------------------------------- 
- ----------10-------------------------10------------------------------ 
- -------------7--------------------------7-----------------7------7--- 
- --------8------8-5--------5--------8------8-5--------8h10---10-----1- 
- ---8/10----------5---8/10-5---8/10----------5---8/10-----------6---1- 
- -----------------5--------5-----------------5----------------------1- 


- ----------------------------------------------------------------------------------------- 
- ---------3---------------------------6--------------------------------------------------- 
- ---2-3/5---5-------2h3---------3-5/7---7-5p3-----3--------------------------------------- 
- -------------3-1-------1---3/5---------------3h5---5p3-0-------------------------8---7--- 
- ---------------1-------1-------------------------------0--------------------------------- 
- ---------------1-------1-------------------------------0---------------------------5---4- 
- 
- ----------------------------------------------------------------------------------------- 
- ---------3---------------------------6--------------------------------------------------- 
- ---2-3/5---5-------------------3-5/7---7-5p3-----3--------------------------------------- 
- -------------3-1---3h5-1---3/5---------------3h5---5p3-0--------------------------------- 
- ---------------1-------1-------------------------------0--------------------------------- 
- ---------------1-------1-------------------------------0--------------------------------- 


Riff 4 - 01:11 - 01:24 - x2 
- ----------------------------------------------------------------------------------------------------------- 
- ----------------------------------------------------------------------------------------------------------- 
- ----------------------------------------------------------------------------------------------------------- 
- -8---7----------------------------13-------12------------12h13-------------15----17--------------------5--- 
- -----------5-------------------------------------0h13h15-------15----13-13--------------------------------- 
- ---5---8-0---8-0-8/10-0---0-10-10----10-10----13------------------10----------15----13-12\-0-0---0-3-3---3- 
PM         .                  .....    .....                           .....                         ... 

Riff 5a - 01:24 - 01:36 
- ----------------------------------------------------------------------- 
- ----------------------------------------------------------------------- 
- ----------------------------------------------------------------------- 
- -8---7----------------5---5---------8---7----------------5---5--------- 
- -----------5----------5---5-------------------5----------5---5--------- 
- ---5---8-0---8-0-8/10-5---5-----5-5---5---8-0---8-0-8/10-5---5-----5-5- 
PM         .                      ...         .                      ... 

- ----------------------------------------------------------------------------------- 
- ----------------------------------------------------------------------------------- 
- ----------------------------------------------------------------------------------- 
- -13----12------10-------7h8-8---8---------13----12------10-------7h8--------------- 
- ------------------13\10-----8---8--------------------------13\10------------------- 
- ----10----13-0--------------8---8-----8-8----10----13-0--------------0---0--------- 
PM             .                        ...             . 

Riff 5b - 01:24 - 01:36 
- --------------------------------------------------------------------------------- 
- -8-8-8-8-8-8-8-8-8-8-8-8-8-8-8-8-10-10-10-10-10-10-11-11-11-11-11-11-11-11-11-11- 
- -x-x-x-x-x-x-x-x-x-x-x-x-x-x-x-x-x--x--x--x--x--x--x--x--x--x--x--x--x--x--x--x-- 
- -5-5-5-5-5-5-5-5-5-5-5-5-5-5-5-5-7--7--7--7--7--7--8--8--8--8--8--8--8--8--8--8-- 
- --------------------------------------------------------------------------------- 
- --------------------------------------------------------------------------------- 

- --------------------------------------------------------------------------------- 
- ---------------------------------11-11-11-11-11-11-10-10-10-10-10-10-10-10-10-10- 
- -8-8-8-8-8-8-8-8-8-8-8-8-8-8-8-8-x--x--x--x--x--x--x--x--x--x--x--x--x--x--x--x-- 
- -x-x-x-x-x-x-x-x-x-x-x-x-x-x-x-x-8--8--8--8--8--8--7--7--7--7--7--7--7--7--7--7-- 
- -6-6-6-6-6-6-6-6-6-6-6-6-6-6-6-6------------------------------------------------- 
- --------------------------------------------------------------------------------- 

Ra Ra Ra - 01:36 - 01:48 
Riff 1, Guitar 1 & 2 - 01:48 - 01:59 
Riff 2, Guitar 1 & 2 - 01:59 - 02:23 


Riff 6, Guitar 1 & 2 - 02:23 - 02:46 - x2 
   T     T    T       T    T          L T    T     T    T       T    T          L T 
- ------------------------------------------------------------------------------------- 
- -22p10------20p10--------------------------22p10------20p10-------------------------- 
- ------------------------------------------------------------------------------------- 
- -------20p8---------22p8------------8-20p8-------20p8---------22p8------------8-20p8- 
- -------------------------20/22p8h10--------------------------------20/22p8h10-------- 
- ------------------------------------------------------------------------------------- 
- 
- ------------------------------------------------------------------------------------- 
- ------------------------------------------------------------------------------------- 
- ------------------------------------------------------------------------------------- 
- -8----------------------------------------------------------------------------------- 
- -5----------------------------------------------------------------------------------- 
- -5----------------------------------------------------------------------------------- 


   T     T    T       T    T           L T    T     T    T       T    T           L T 
- -20p10------15p10---------------------------20p10------15p10--------------------------- 
- --------------------------------------------------------------------------------------- 
- -------17p8---------17p8-------------8-15p8-------17p8---------17p8-------------8-15p8- 
- -------------------------15h/17p8h10--------------------------------15h/17p8h10-------- 
- --------------------------------------------------------------------------------------- 
- --------------------------------------------------------------------------------------- 
- 
- --------------------------------------------------------------------------------------- 
- --------------------------------------------------------------------------------------- 
- -7------------------------------------------------------------------------------------- 
- -5------------------------------------------------------------------------------------- 
- -3------------------------------------------------------------------------------------- 
- --------------------------------------------------------------------------------------- 


Riff 7, Guitar 1 & 2 - 02:46 -  
- ----------------------------------------------------------------- 
- ----------------------------------------------------------------- 
- ----------------------------------------------------------------- 
- -7h8---7h8---7h8---7h8---7h8-----7h8---7h8---7h8---7h8---7h8----- 
- ----------------------------------------------------------------- 
- -----5-----5-----5-----5-----5-------5-----5-----5-----5-----5--- 
- 
- ----------------------------------------------------------------- 
- ----------------------------------------------------------------- 
- ----------------------------------------------------------------- 
- -7h8---7h8---7h8---7h8---7h8-----7h8---7h8---7h8---7h8---7h8----- 
- ----------------------------------------------------------------- 
- -----5-----5-----5-----5-----5-------5-----5-----5-----5-----5--- 


- ----------------------------------------------------------------- 
- ----------------------------------------------------------------- 
- ----------------------------------------------------------------- 
- -5h7---5h7---5h7---5h7---5h7-----5h7---5h7---5h7---5h7---5h7----- 
- ----------------------------------------------------------------- 
- -----3-----3-----3-----3-----3-------3-----3-----3-----3-----3--- 
- 
- ----------------------------------------------------------------- 
- ----------------------------------------------------------------- 
- ----------------------------------------------------------------- 
- -5h7---5h7---5h7---5h7---5h7-----5h7---5h7---5h7---5h7---5h7----- 
- ----------------------------------------------------------------- 
- -----3-----3-----3-----3-----3-------3-----3-----3-----3-----3--- 


- ----------------------------------------------------------------- 
- ----------------------------------------------------------------- 
- ----------------------------------------------------------------- 
- -3h5---3h5---3h5---3h5---3h5-----3h5---3h5---3h5---3h5---3h5----- 
- ----------------------------------------------------------------- 
- -----1-----1-----1-----1-----1-------1-----1-----1-----1-----1--- 
- 
- ----------------------------------------------------------------- 
- ----------------------------------------------------------------- 
- ----------------------------------------------------------------- 
- -3h5---3h5---3h5---3h5---3h5-----3h5---3h5---3h5---3h5---3h5----- 
- ----------------------------------------------------------------- 
- -----1-----1-----1-----1-----1-------1-----1-----1-----1-----1--- 


- ---------------------------------------------------------------------- 
- ---------------------------------------------------------------------- 
- ---------------------------------------------------------------------- 
- -8h10---8h10---8h10---8h10---8h10-----7h8---7h8---7h8---7h8---7h8----- 
- ---------------------------------------------------------------------- 
- ------8------8------8------8------8-------7-----7-----7-----7-----7--- 
- 
- ---------------------------------------------------------------------- 
- ---------------------------------------------------------------------- 
- ---------------------------------------------------------------------- 
- -8h10---8h10---8h10---8h10---8h10-----7h8---7h8---7h8---7h8---7h8----- 
- ---------------------------------------------------------------------- 
- ------8------8------8------8------8-------7-----7-----7-----7-----7--- 


- ----------------------------------------------------------------- 
- ----------------------------------------------------------------- 
- ----------------------------------------------------------------- 
- -7h8---7h8---7h8---7h8---7h8-----7h8---7h8---7h8---7h8---7h8----- 
- ----------------------------------------------------------------- 
- -----5-----5-----5-----5-----5-------5-----5-----5-----5-----5--- 
- 
- ----------------------------------------------------------------- 
- ----------------------------------------------------------------- 
- -5h7---5h7---5h7---5h7---5h7-----5h7---5h7---5h7---5h7---5h7----- 
- ----------------------------------------------------------------- 
- ----------------------------------------------------------------- 
- -----5-----5-----5-----5-----5-------5-----5-----5-----5-----5--- 


- ----------------------------------------------------------------- 
- ----------------------------------------------------------------- 
- ----------------------------------------------------------------- 
- -5h7---5h7---5h7---5h7---5h7-----5h7---5h7---5h7---5h7---5h7----- 
- ----------------------------------------------------------------- 
- -----3-----3-----3-----3-----3-------3-----3-----3-----3-----3--- 
- 
- ----------------------------------------------------------------- 
- ----------------------------------------------------------------- 
- -3h5---3h5---3h5---3h5---3h5-----3h5---3h5---3h5---3h5---3h5----- 
- ----------------------------------------------------------------- 
- ----------------------------------------------------------------- 
- -----3-----3-----3-----3-----3-------3-----3-----3-----3-----3--- 


- ----------------------------------------------------------------- 
- ----------------------------------------------------------------- 
- ----------------------------------------------------------------- 
- -3h5---3h5---3h5---3h5---3h5-----3h5---3h5---3h5---3h5---3h5----- 
- ----------------------------------------------------------------- 
- -----1-----1-----1-----1-----1-------1-----1-----1-----1-----1--- 
- 
- ----------------------------------------------------------------- 
- ----------------------------------------------------------------- 
- -2h3---2h3---2h3---2h3---2h3-----2h3---2h3---2h3---2h3---2h3----- 
- ----------------------------------------------------------------- 
- ----------------------------------------------------------------- 
- -----1-----1-----1-----1-----1-------1-----1-----1-----1-----1--- 


- ---------------------------------------------------------------------- 
- ---------------------------------------------------------------------- 
- ---------------------------------------------------------------------- 
- -8h10---8h10---8h10---8h10---8h10-----7h8---7h8---7h8---7h8---7h8----- 
- ---------------------------------------------------------------------- 
- ------8------8------8------8------8-------7-----7-----7-----7-----7--- 
- 
- ---------------------------------------------------------------------- 
- ---------------------------------------------------------------------- 
- -7h8----7h8----7h8----7h8----7h8------5h7---5h7---5h7---5h7---5h7----- 
- ---------------------------------------------------------------------- 
- ---------------------------------------------------------------------- 
- ------8------8------8------8------8-------7-----7-----7-----7-----7--- 


Riff 8a - 03:33 - 03:57 
- ----------------------------------------------------------------------- 
- ----------------------------------------------------------------------- 
- ----------------------------------------------------------------------- 
- -8---7----------------5---5---------8---7----------------5---5--------- 
- -----------5----------5---5-------------------5----------5---5--------- 
- ---5---8-0---8-0-8/10-5---5-----5-5---5---8-0---8-0-8/10-5---5-----5-5- 
PM         .                      ...         .                      ... 

- ----------------------------------------------------------------------------------- 
- ----------------------------------------------------------------------------------- 
- ----------------------------------------------------------------------------------- 
- -13----12------10-------7h8-8---8---------13----12------10-------7h8--------------- 
- ------------------13\10-----8---8--------------------------13\10------------------- 
- ----10----13-0--------------8---8-----8-8----10----13-0--------------0---0-----0-0- 
PM             .                        ...             .                        ... 

- ----------------------------------------------------------------------- 
- ----------------------------------------------------------------------- 
- ----------------------------------------------------------------------- 
- -8---7----------------5---5---------8---7----------------5---5--------- 
- -----------5----------5---5-------------------5----------5---5--------- 
- ---5---8-0---8-0-8/10-5---5-----5-5---5---8-0---8-0-8/10-5---5-----5-5- 
PM         .                      ...         .                      ... 

- ----------------------------------------------------------------------------------- 
- ----------------------------------------------------------------------------------- 
- ----------------------------------------------------------------------------------- 
- -13----12------10-------7h8-8---8---------13----12------10-------7h8--------------- 
- ------------------13\10-----8---8--------------------------13\10------------------- 
- ----10----13-0--------------8---8-----8-8----10----13-0--------------0---0--------- 
PM             .                        ...             . 

Riff 8b - 03:33 - 03:57 - x2 
- --------------------------------------------------------------------------------- 
- -8-8-8-8-8-8-8-8-8-8-8-8-8-8-8-8-10-10-10-10-10-10-11-11-11-11-11-11-11-11-11-11- 
- -x-x-x-x-x-x-x-x-x-x-x-x-x-x-x-x-x--x--x--x--x--x--x--x--x--x--x--x--x--x--x--x-- 
- -5-5-5-5-5-5-5-5-5-5-5-5-5-5-5-5-7--7--7--7--7--7--8--8--8--8--8--8--8--8--8--8-- 
- --------------------------------------------------------------------------------- 
- --------------------------------------------------------------------------------- 

- --------------------------------------------------------------------------------- 
- ---------------------------------11-11-11-11-11-11-10-10-10-10-10-10-10-10-10-10- 
- -8-8-8-8-8-8-8-8-8-8-8-8-8-8-8-8-x--x--x--x--x--x--x--x--x--x--x--x--x--x--x--x-- 
- -x-x-x-x-x-x-x-x-x-x-x-x-x-x-x-x-8--8--8--8--8--8--7--7--7--7--7--7--7--7--7--7-- 
- -6-6-6-6-6-6-6-6-6-6-6-6-6-6-6-6------------------------------------------------- 
- --------------------------------------------------------------------------------- 

Riff 8c - 03:45 - 03:57 
- ----------------------------------------------------------------------- 
- -8-8-8-8-8-8-8-8-8-8-8-8-8-8-8-8--------------------------------------- 
- -x-x-x-x-x-x-x-x-x-x-x-x-x-x-x-x-10-10-10-10-10-10-8-8-8-8-8-8-8-8-8-8- 
- -5-5-5-5-5-5-5-5-5-5-5-5-5-5-5-5-x--x--x--x--x--x--x-x-x-x-x-x-x-x-x-x- 
- ---------------------------------8--8--8--8--8--8--6-6-6-6-6-6-6-6-6-6- 
- ----------------------------------------------------------------------- 

- --------------------------------------------------------------------------- 
- ---------------------------------8-8-8-8-8-8-10-10-10-10-10-10-10-10-10-10- 
- -7-7-7-7-7-7-7-7-7-7-7-7-7-7-7-7-x-x-x-x-x-x-x--x--x--x--x--x--x--x--x--x-- 
- -x-x-x-x-x-x-x-x-x-x-x-x-x-x-x-x-5-5-5-5-5-5-7--7--7--7--7--7--7--7--7--7-- 
- -5-5-5-5-5-5-5-5-5-5-5-5-5-5-5-5------------------------------------------- 
- --------------------------------------------------------------------------- 


Riff 9, Guitar 1 & 2 - 03:57 - 04:08 
- ------------------------------------------------------------------------------------- 
- -22p10------20p10--------------------------22p10------20p10-------------------------- 
- ------------------------------------------------------------------------------------- 
- -------20p8---------22p8------------8-20p8-------20p8---------22p8------------8-20p8- 
- -------------------------20/22p8h10--------------------------------20/22p8h10-------- 
- ------------------------------------------------------------------------------------- 
- 
- ------------------------------------------------------------------------------------- 
- ------------------------------------------------------------------------------------- 
- ------------------------------------------------------------------------------------- 
- -8----------------------------------------------------------------------------------- 
- -5----------------------------------------------------------------------------------- 
- -5----------------------------------------------------------------------------------- 


- ------------------------------------------------------------------------------------- 
- -22p10------20p10--------------------------22p10------20p10-------------------------- 
- ------------------------------------------------------------------------------------- 
- -------20p8---------22p8------------8-20p8-------20p8---------22p8------------8-20p8- 
- -------------------------20/22p8h10--------------------------------20/22p8h10-------- 
- ------------------------------------------------------------------------------------- 
- 
- ------------------------------------------------------------------------------------- 
- ------------------------------------------------------------------------------------- 
- ------------------------------------------------------------------------------------- 
- ------------------------------------------------------------------------------------- 
- ------------------------------------------------------------------------------------- 
- ------------------------------------------------------------------------------------- 


Symbols 

PM... Palm Mute notes with (...) under them 
AP... Alternate Pick notes with (...) under them 
h     Hammer On 
p     Pull Off 
    Harmonic 
/     Slide Up 
\     Slide Down 
x     Dead Note 
b     Bend 
hb    Hold Bend 
pb    Pre-Bend 
r     Release Bend 
(x )  Play Notes x amount of times 
~     Let Ring 
\\\   Pick Slide Down 
///   Pick Slide Up 
/ 3 \ Notes are triplets (3 notes in the space of two) 
w\    Whammy Bar Down 
w/    Whammy Bar Up 
wh    Whammy Bar Hold 
T     Right Hand Tap 
L     Left Hand Tap 

:) 
  

cifra enviadasem correções
enviado porenviada por:tarikike
top 5 | oh, sleeper
top rock'n roll
Outras músicas do artista letras do(a) Oh, Sleeper
Top cifras »Top artistas »
Petaxxon Comunicação Online
Cifras.com.br - Melhor e mais completo site de cifras e tablaturas do Brasil
Mais de 1 milhão de acordes de músicas cadastradas desde 2003
As informações contidas no nosso site são colaborações de seus usuários e podem conter erros, sendo assim, não nos responsabilizamos sobre nenhuma destas.
close
menos
mais
close
Cor dos acordes:

Cor da letra:

 

save
close
close
 
redimensionar