Cifras e Tablaturas
Oh, Sleeper

Oh, Sleeper

His Name Was Bishop

Cifras Cancelar Versão de Impressão
cifras

Oh, Sleeper - His Name Was Bishop

fixar na tela  
Exibindo: vídeo-aula ver clipes redimensionar
  
Tuning: C G C F A D 

Riff 1, Guitar 1 & 2 - 00:00 - 00:17 
- ----------------------------------------------------------------------------------------- 
- ----------------------------------------------------------------------------------------- 
- ----------------------------------------------------------------------------------------- 
- -2---2-----2---2-------2---2-------------3---2---2-----2---2-------2---2-------------3--- 
- -6---6-----6---6-------6---6-------2---------6---6-----6---6-------6---6-------2--------- 
- ---0---------0---0-2-3---0---0-2-3---3-2---2---0---0-2---0---0-2-3---0---0-2-3---3-2---2- 
PM   .         .           .                     .         .           . 
- ----------------------------------------------------------------------------------------- 
- ----------------------------------------------------------------------------------------- 
- ----------------------------------------------------------------------------------------- 
- -2---2-----2---2-------2---2-------------3---2---2-----2---2-------2---2-------------3--- 
- -6---6-----6---6-------6---6-------2---------6---6-----6---6-------6---6-------2--------- 
- ---0---0-2---0-----------0---0-2-3---3-2---2---0---0-2---0---0-2-3---0---0-2-3---3-2---2- 
PM   .         .           .                     .         .           . 


- ----------------------------------------------------------------------------------------- 
- ----------------------------------------------------------------------------------------- 
- ----------------------------------------------------------------------------------------- 
- -2---2-----2---2-------2---2-------------3---2---2-----2---2-------2---2-------------3--- 
- -6---6-----6---6-------6---6-------2---------6---6-----6---6-------6---6-------2--------- 
- ---0---0-2---0---0-2-3---0---0-2-3---3-2---2---0---0-2---0---0-2-3---0---0-2-3---3-2---2- 
PM   .         .           .                     .         .           . 
- ----------------------------------------------------------------------------------------- 
- ----------------------------------------------------------------------------------------- 
- ----------------------------------------------------------------------------------------- 
- -2---2-----2---2-------2---2-------------3---2---2-----2---2-------2---2-------------3--- 
- -6---6-----6---6-------6---6-------2---------6---6-----6---6-------6---6-------2--------- 
- ---0---0-2---0---0-2-3---0---0-2-3---3-2---2---0---0-2---0---0-2-3---0---0-2-3---3-2---2- 
PM   .         .           .                     .         .           . 


- ------------------------- 
- ------------------------- 
- ------------------------- 
- -------------2---3---0--- 
- -------2-3-4-2---3---0--- 
- -3-4-5-------2---3---0--- 
- 
- ------------------------- 
- ------------------------- 
- ------------------------- 
- -------------2---3---0--- 
- -------2-3-4-2---3---0--- 
- -3-4-5-------2---3---0--- 


Riff 2 - 00:17 - 00:28 
- ----------------------------------------------------------------- 
- ---------4-4-4-4-4-4-4-4-4-4-4-4---------4-4-4-4-4-4-4-4-4-4-4-4- 
- ---------7-7-7-7-7-7-7-7-7-7-7-7---------7-7-7-7-7-7-7-7-7-7-7-7- 
- ---1---0-0-0-0-0-0-0-0-0-0-0-0-0-0-1---0-0-0-0-0-0-0-0-0-0-0-0-0- 
- -0-1---0-------------------------0-1---0------------------------- 
- -0-1---0-------------------------0-1---0------------------------- 
PM . 

- ------------------------------------------------------------------- 
- ---------4-4-4-4-4-4-4-4-4-4-4-4----------------------------------- 
- ---------7-7-7-7-7-7-7-7-7-7-7-7-------------------8---8----------- 
- -0-1---0-0-0-0-0-0-0-0-0-0-0-0-0---1---1---5---5---x---x---1---1--- 
- -0-1---0-------------------------0-1---1-0-5---5-0-6---6-0-1---1--- 
- -0-1---0-------------------------0-1---1-0-5---5-0-------0-1---1--- 
PM                                 .       .       .       . 


Riff 3, Guitar 1 & 2 - 00:28 - 00:47 
- ----------------------------------------------------------------------------------------- 
- ----------------------------------------------------------------------------------------- 
- ----------------------------------------------------------------------------------------- 
- -----------------------------------------3-------------------------------------------3--- 
- -6---6-----6---6-------6---6-------2---------6---6-----6---6-------6---6-------2--------- 
- -0---0-----0---0-------0---0-0-2-3---3-2---2-0---0-----0---0-------0---0-0-2-3---3-2---2- 
- 
- ----------------------------------------------------------------------------------------- 
- ----------------------------------------------------------------------------------------- 
- ----------------------------------------------------------------------------------------- 
- -----------------------------------------3-------------------------------------------3--- 
- -6---6-----6---6-------6---6-------2---------6---6-----6---6-------6---6-------2--------- 
- -0---0-----0---0-------0---0-0-2-3---3-2---2-0---0-----0---0-------0---0-0-2-3---3-2---2- 


- ----------------------------------------------------------------------------------------- 
- ----------------------------------------------------------------------------------------- 
- ----------------------------------------------------------------------------------------- 
- -----------------------------------------3-------------------------------------------3--- 
- -6---6-----6---6-------6---6-------2---------6---6-----6---6-------6---6-------2--------- 
- -0---0-----0---0-0-2-3-0---0-0-2-3---3-2---2-0---0-----0---0-0-2-3-0---0-0-2-3---3-2---2- 
- 
- ----------------------------------------------------------------------------------------- 
- ----------------------------------------------------------------------------------------- 
- ----------------------------------------------------------------------------------------- 
- -----------------------------------------3-------------------------------------------3--- 
- -6---6-----6---6-------6---6-------2---------6---6-----6---6-------6---6-------2--------- 
- -0---0-0-2-0---0-------0---0-0-2-3---3-2---2-0---0-0-2-0---0-------0---0-0-2-3---3-2---2- 


- ------------------------------------------------------------- 
- ------------------------------------------------------------- 
- ------------------------------------------------------------- 
- ------------------------------------------------------------- 
- ------------------------------------------------------------- 
- -1----------------------------------------------------------- 
- 
- ------------------------------------------------------------- 
- ------------------------------------------------------------- 
- ------------------------------------------------------------- 
- ------------------------------------------------------------- 
- ------------------------------------------------------------- 
- -1----------------------------------------------------------- 


Riff 4a - 00:47 - 01:10 
- -----------------------------5---7-------------------------------5---7--- 
- ---------4---4-----------4-----4---6---------4---4-----------4-----4---6- 
- -----------7---7-5h6h7h8---7-------------------7---7-5h6h7h8---7--------- 
- ---1---0-----------------------------0-1---0----------------------------- 
- -0-1---0-----------------------------0-1---0----------------------------- 
- -0-1---0-----------------------------0-1---0----------------------------- 
PM . 

- -----------------------------5---7-----10--------8---------------------------8---- 
- ---------4---4-----------4-----4---6--------10-------8--------------7h8h9h10---10- 
- -----------7---7-5h6h7h8---7-------------------7-------8---7h8h9h10--------------- 
- -0-1---0-------------------------------------------------------------------------- 
- -0-1---0-----------------------------0-------------------------------------------- 
- -0-1---0-----------------------------0-------------------------------------------- 
PM                                     . 

- -----------------------------5---7----------------------------------- 
- ---------4---4-----------4-----4---6---------4-4-4-4-4-4-4-4-4-4-4-4- 
- -----------7---7-5h6h7h8---7-----------------7-7-7-7-7-7-7-7-7-7-7-7- 
- ---1---0-----------------------------0-1---0-0-0-0-0-0-0-0-0-0-0-0-0- 
- -0-1---0-----------------------------0-1---0------------------------- 
- -0-1---0-----------------------------0-1---0------------------------- 
PM . 

- -----------------------------5---7-----10--------8---------------------------8----8----8----8---- 
- ---------4---4-----------4-----4---6--------10-------8--------------7h8h9h10---10---10---10---10- 
- -----------7---7-5h6h7h8---7-------------------7-------8---7h8h9h10------------------------------ 
- -0-1---0----------------------------------------------------------------------------------------- 
- -0-1---0-----------------------------0----------------------------------------------------------- 
- -0-1---0-----------------------------0----------------------------------------------------------- 
PM                                     . 

Riff 4b - 00:47 - 01:10 
- ----------------------------------------------------------------- 
- ----------------------------------------------------------------- 
- ----------------------------------------------------------------- 
- ---1---0-------------------------0-1---0------------------------- 
- -0-1---0-------------------------0-1---0------------------------- 
- -0-1---0-------------------------0-1---0------------------------- 
PM . 

- ----------------------------------------------------------------- 
- ----------------------------------------------------------------- 
- ---------------------------------------------------8---8--------- 
- -0-1---0---------------------------1---1---5---5---x---x---1---1- 
- -0-1---0-------------------------0-1---1-0-5---5-0-6---6-0-1---1- 
- -0-1---0-------------------------0-1---1-0-5---5-0-------0-1---1- 
PM                                 .       .       .       . 

- -------------------------------------------------------------5---7--- 
- ---------4-4-4-4-4-4-4-4-4-4-4-4---------4---4-----------4-----4---6- 
- ---------7-7-7-7-7-7-7-7-7-7-7-7-----------7---7-5h6h7h8---7--------- 
- ---1---0-0-0-0-0-0-0-0-0-0-0-0-0-0-1---0----------------------------- 
- -0-1---0-------------------------0-1---0----------------------------- 
- -0-1---0-------------------------0-1---0----------------------------- 
PM . 

- ----------------------------------------------------------------------------- 
- ---------4-4-4-4-4-4-4-4-4-4-4-4--------------------------------------------- 
- ---------7-7-7-7-7-7-7-7-7-7-7-7-------------------8---8--------------------- 
- ---1---0-0-0-0-0-0-0-0-0-0-0-0-0---1---1---5---5---x---x---1---1------------- 
- -0-1---0-------------------------0-1---1-0-5---5-0-6---6-0-1---1------------- 
- -0-1---0-------------------------0-1---1-0-5---5-0-------0-1---1------------- 
PM .                               .       .       .       . 

Riff 5a - 01:10 - 01:18 
- ------------------------------------------------------------------------------------------------- 
- -4\3/4-----4\3-3-4\3/4---4\3/4-----4\3-3-4\3/4---4\3/4-----4\3-3-4\3/4---4\3/4-----4\3-3-4\3----- 
- -7\6/7-----7\6-6-7\6/7---7\6/7-----7\6-6-7\6/7---7\6/7-----7\6-6-7\6/7---7\6/7-----7\6-6-7\6----- 
- ---------------------------------------------------------------------------------------------12\- 
- -------0-0-------------0-------0-0-------------0-------0-0-------------0-------0-0-----------12\- 
- -------0-0-------------0-------0-0-------------0-------0-0-------------0-------0-0-----------12\- 
PM       ...             .       ...             .       ...             .       ... 

Riff 5b - 01:10 - 01:18 
- ------------------------------------------------------------------------- 
- -------------------5-----------------------------------5----------------- 
- -7-6-7-5h6-5h6h7h8---8p7p6-7-6-7-5h6-7-6-7-5h6-5h6h7h8---8p7p6-7-6-7-5h6- 
- ------------------------------------------------------------------------- 
- ------------------------------------------------------------------------- 
- ------------------------------------------------------------------------- 

- ------------------------------------------------------------------------- 
- -------------------5-----------------------------------5----------------- 
- -7-6-7-5h6-5h6h7h8---8p7p6-7-6-7-5h6-7-6-7-5h6-5h6h7h8---8p7p6-7-6-7-5h6- 
- ------------------------------------------------------------------------- 
- ------------------------------------------------------------------------- 
- ------------------------------------------------------------------------- 


Riff 6, Guitar 1 & 2 - 01:18 - 01:27 
- ----------------------------------------------------------------------------------------------------- 
- ----------------------------------------------------------------------------------------------------- 
- ----------------------------------------------------------------------------------------------------- 
- ----------------------------------------------------------------------------------------------------- 
- -000000-----000-0-00000---000000-----000-0-00000---000000-----000-0-00000---000000-----000-0-00000--- 
- -000000-----000-0-00000---000000-----000-0-00000---000000-----000-0-00000---000000-----000-0-00000--- 
PM ................................................................................................... 
- ----------------------------------------------------------------------------5------------------------ 
- -3-------------------------------------------------4------------------------4------------------------ 
- -7(x48)--------------------------------------------7(x24)-------------------7(x24)------------------- 
- ----------------------------------------------------------------------------------------------------- 
- ----------------------------------------------------------------------------------------------------- 
- ----------------------------------------------------------------------------------------------------- 


- ----------------- 
- ----------------- 
- ----------------- 
- ----------------- 
- -00000----------- 
- -00000----------- 
PM ..... 
- ---------5------- 
- -----4-------4--- 
- -7--------------- 
- ----------------- 
- ----------------- 
- ----------------- 


Riff 7a - 01:27 - 01:53 
- -------------------------------------------------------------------------- 
- -------------------------------------------------------------------------- 
- -------------------------------------------------------------------------- 
- -----------2---1---x-x---------------------2---1---x-x-x-x-2---1---xxx-xx- 
- ---------0-2---1---x-x-------------------0-2---1---x-x-x-x-2---1---xxx-xx- 
- -1-0-1/--0-2---1---x-x-----------1-0-1/--0-2---1---x-x-x-x-2---1---xxx-xx- 
PM         .                               . 

- --------------------------------------------------------- 
- --------------------------------------------------------- 
- --------------------------------------------------------- 
- -----------2---1---x-x---------------------2---1---x-x-x- 
- ---------0-2---1---x-x-------------------0-2---1---x-x-x- 
- -1-0-1/--0-2---1---x-x-----------1-0-1/--0-2---1---x-x-x- 
PM         .                               . 

- -------------------------------------------------------------------------- 
- -------------------------------------------------------------------------- 
- -------------------------------------------------------------------------- 
- -----------2---1---x-x---------------------2---1---x-x-x-x-2---1---xxx-xx- 
- ---------0-2---1---x-x-------------------0-2---1---x-x-x-x-2---1---xxx-xx- 
- -1-0-1/--0-2---1---x-x-----------1-0-1/--0-2---1---x-x-x-x-2---1---xxx-xx- 
PM         .                               . 

- ----------------------------------------------------------------------------------------- 
- ----------------------------------------------------------------------------------------- 
- ----------------------------------------------------------------------------------------- 
- -----------2---1---x-x---------------------2---1---x-x-x-x-2---1---x-x-x-x-2---1---x-x-x- 
- ---------0-2---1---x-x-------------------0-2---1---x-x-x-x-2---1---x-x-x-x-2---1---x-x-x- 
- -1-0-1/--0-2---1---x-x-----------1-0-1/--0-2---1---x-x-x-x-2---1---x-x-x-x-2---1---x-x-x- 
PM         .                               . 

Riff 7b - 01:29 & 01:35 & 01:40 & 01:47 
- -------------5--- 
- ---------4-----4- 
- -0-0h4h7---7----- 
- ----------------- 
- ----------------- 
- ----------------- 

Riff 8 - 01:53 - 02:08 
- ------------------------------------------------------------------------------------------- 
- -9---9-----9---9-------9---9-------------10---9---9-----9---9-------9---9-------------10--- 
- -----------------------------------9--------------------------------------------9---------- 
- ---6---6-7---6---6-7-8---6---6-7-8---9-7----7---6---6-7---6---6-7-8---6---6-7-8---9-7----7- 
- ------------------------------------------------------------------------------------------- 
- ------------------------------------------------------------------------------------------- 

- ------------------------------------------------------------------------------------------- 
- -9---9-----9---9-------9---9-------------10---9---9-----9---9-------9---9-------------10--- 
- -----------------------------------9--------------------------------------------9---------- 
- ---6---6-7---6---6-7-8---6---6-7-8---9-7----7---6---6-7---6---6-7-8---6---6-7-8---9-7----7- 
- ------------------------------------------------------------------------------------------- 
- ------------------------------------------------------------------------------------------- 

Riff 9 - 02:08 - 02:25 
- ------------------------------------------------------------------------------------------- 
- -9---9-----9---9-------9---9-------------10---9---9-----9---9-------9---9-------------10--- 
- -x---x-----x---x-------x---x-------9----------x---x-----x---x-------x---x-------9---------- 
- -7---7-----7---7-------7---7-6-7-8---9-7----7-7---7-----7---7-------7---7-6-7-8---9-7----7- 
- ------------------------------------------------------------------------------------------- 
- ------------------------------------------------------------------------------------------- 

- ------------------------------------------------------------------------------------------- 
- -9---9-----9---9-------9---9------------------9---9-----9---9-------9---9-------------10--- 
- -x---x-----x---x-------x---x------------------x---x-----x---x-------x---x-------9---------- 
- -7---7-----7---7-------7---7------------------7---7-----7---7-------7---7-6-7-8---9-7----7- 
- ------------------------------------------------------------------------------------------- 
- ------------------------------------------------------------------------------------------- 

- ------------------------------ 
- ------------------------------ 
- --------7-8-9----------------- 
- -8-9-10-------2---3---0------- 
- --------------2---3---0------- 
- --------------2---3---0------- 

Riff 10a, Guitar 1 & 2 - 02:25 - 02:35 
- ----------------------------------------------------------------------------------------- 
- ----------------------------------------------------------------------------------------- 
- ----------------------------------------------------------------------------------------- 
- -0-----0-0-----0-0-----0-----0-0-----0-0-----0-----0-0-----0-0-----0-----0-0-----0-0----- 
- -0-----0-0-----0-0-----0-----0-0-----0-0-----0-----0-0-----0-0-----0-----0-0-----0-0----- 
- -0-----0-0-----0-0-----0-----0-0-----0-0-----0-----0-0-----0-0-----0-----0-0-----0-0----- 

Riff 10b - 02:25 - 02:35 - x4 
- ------------------------------------------------------------- 
- ------------------------------------------------------------- 
- -13p12p9-16p0h10-13p12-13p12p9-16p0h10-13p12-13p12p9-16p0h10- 
- ------------------------------------------------------------- 
- ------------------------------------------------------------- 
- ------------------------------------------------------------- 

Riff 11, Guitar 1 & 2 - 02:35 - 02:41 
- ----------------------------------------------------- 
- ----------------------------------------------------- 
- ----------------------------------------------------- 
- ----------------------------------------------------- 
- -6--------------------------------------------------- 
- -0--------------------------------------------------- 
- 
- ----------------------------------------------------- 
- ----------------------------------------------------- 
- ----------------------------------------------------- 
- ----------------------------------------------------- 
- -6---------00-00-6---------00-00-6---------00-00-6--- 
- -0---------00-00-0---------00-00-0---------00-00-0--- 
PM           .....           .....           ..... 


Riff 12, Guitar 1 & 2 - 02:41 - 03:08 
- --------------------------------------------------------- 
- -------------------------------------4-4-4-4-4-------4-4- 
- -------------------------------------7-7-7-7-7-------7-7- 
- --------------------------------------------------------- 
- -00-0-00-----------00-00-----00-0-00-----------00-00----- 
- -00-0-00-----------00-00-----00-0-00-----------00-00----- 
PM .....................................         ..... 
- --------------------------------------------------------- 
- -------------------------------------4-4-4-4-4-------4-4- 
- -------------------------------------7-7-7-7-7-------7-7- 
- -----------------------------------------------------0-0- 
- -00-0-00-----------00-00-----00-0-00-----------00-00----- 
- -00-0-00-----------00-00-----00-0-00-----------00-00----- 
PM .....................................         ..... 


- --------------------------------------------------------- 
- ---------4-4-4-4-4-------4-4---------4-4-4-4-4-------4-4- 
- ---------7-7-7-7-7-------7-7---------7-7-7-7-7-------7-7- 
- --------------------------------------------------------- 
- -00-0-00-----------00-00-----00-0-00-----------00-00----- 
- -00-0-00-----------00-00-----00-0-00-----------00-00----- 
PM ...................................           ..... 
- --------------------------------------------------------- 
- ---------4-4-4-4-4-------4-4---------4-4-4-4-4-------4-4- 
- ---------7-7-7-7-7-------7-7---------7-7-7-7-7-------7-7- 
- ---------0-0-0-0-0-------0-0---------0-0-0-0-0-------0-0- 
- -00-0-00-----------00-00-----00-0-00-----------00-00----- 
- -00-0-00-----------00-00-----00-0-00-----------00-00----- 
PM ...................................           ..... 


- --------------------------------------------------------- 
- ---------4-4-4-4-4-------4-4---------4-4-4-4-4----------- 
- ---------7-7-7-7-7-------7-7---------7-7-7-7-7----------- 
- --------------------------------------------------------- 
- -00-0-00-----------00-00-----00-0-00-----------00-00----- 
- -00-0-00-----------00-00-----00-0-00-----------00-00----- 
PM ...................................           ..... 
- --------------------------------------------------------- 
- ---------4-4-4-4-4-------4-4---------4-4-4-4-4----------- 
- ---------7-7-7-7-7-------7-7---------7-7-7-7-7----------- 
- ---------0-0-0-0-0-------0-0---------0-0-0-0-0----------- 
- -00-0-00-----------00-00-----00-0-00-----------00-00----- 
- -00-0-00-----------00-00-----00-0-00-----------00-00----- 
PM ...................................           ..... 


- --------------------------------------------------------- 
- --------------------------------------------------------- 
- --------------------------------------------------------- 
- --------------------------------------------------------- 
- -00-0-00-----------00-00-----00-0-00-----------00-00----- 
- -00-0-00-----------00-00-----00-0-00-----------00-00----- 
PM .....................................         ..... 
- --------------------------------------------------------- 
- --------------------------------------------------------- 
- --------------------------------------------------------- 
- --------------------------------------------------------- 
- -00-0-00-----------00-00-----00-0-00-----------00-00----- 
- -00-0-00-----------00-00-----00-0-00-----------00-00----- 
PM .....................................         ..... 


- ----------------- 
- ----------------- 
- ----------------- 
- ----------------- 
- -00-0-00--------- 
- -00-0-00--------- 
PM ....... 
- ----------------- 
- ----------------- 
- ----------------- 
- ----------------- 
- -00-0-00--------- 
- -00-0-00--------- 
PM ....... 

Symbols 

PM... Palm Mute notes with (...) under them 
AP... Alternate Pick notes with (...) under them 
h     Hammer On 
p     Pull Off 
    Harmonic 
/     Slide Up 
\     Slide Down 
x     Dead Note 
b     Bend 
hb    Hold Bend 
pb    Pre-Bend 
r     Release Bend 
(x )  Play Notes x amount of times 
~     Let Ring 
\\\   Pick Slide Down 
///   Pick Slide Up 
/ 3 \ Notes are triplets (3 notes in the space of two) 
w\    Whammy Bar Down 
w/    Whammy Bar Up 
wh    Whammy Bar Hold 
T     Right Hand Tap 
L     Left Hand Tap  
  

top 5 | oh, sleeper
top rock'n roll
Outras músicas do artista letras do(a) Oh, Sleeper
Top cifras »Top artistas »
Petaxxon Comunicação Online
Cifras.com.br - Melhor e mais completo site de cifras e tablaturas do Brasil
Mais de 1 milhão de acordes de músicas cadastradas desde 2003
As informações contidas no nosso site são colaborações de seus usuários e podem conter erros, sendo assim, não nos responsabilizamos sobre nenhuma destas.
close
menos
mais
close
Cor dos acordes:

Cor da letra:

 

save
close
close
 
redimensionar