Cifras e Tablaturas
Oh, Sleeper

Oh, Sleeper

Hush Yael

Cifras Cancelar Versão de Impressão
cifras

Oh, Sleeper - Hush Yael

fixar na tela  
Exibindo: vídeo-aula ver clipes redimensionar
  
Tuning: A E A D A D 

Riff 1 - 00:00 - 00:28 
- ----------------------------------------------------------------- 
- ---------0-----0-----------0-------------0-----0-----------0----- 
- -2-------2-----2-----------2-------------2-----2-----------2----- 
- -0-0-0-0---0-0---0-0-0-0-0---0-0-0------------------------------- 
- ---------------------------------3-3-3-3---3-3---3-3-3-3-3---3-3- 
- ----------------------------------------------------------------- 

- ----------------------------------------------------------------- 
- ----------------------------------------------------------------- 
- ---------3-----2-----------2-------------2-----3-----5----------- 
- -3-------3-----3-----------3------------------------------------- 
- -1-1-1-1---1-1---1-1-1-1-1---1-1-0-0-0-0---0-0---0-0---0-0-0-0-0- 
- ----------------------------------------------------------------- 

- ----------------------------------------------------------------- 
- ---------0-----0-----------0-------------0-----0-----------0----- 
- -2-------2-----2-----------2-------------2-----2-----------2----- 
- -0-0-0-0---0-0---0-0-0-0-0---0-0-0------------------------------- 
- ---------------------------------3-3-3-3---3-3---3-3-3-3-3---3-3- 
- ----------------------------------------------------------------- 

- ----------------------------------------------------------------- 
- ----------------------------------------------------------------- 
- ---------3-----2-----------2-----3---2h3------------------------- 
- -3-------3-----3-----------3------------------------------------- 
- -1-1-1-1---1-1---1-1-1-1-1---1-1---0----------------------------- 
- ----------------------------------------------------------------- 

Riff 2a - 00:28 - 00:42 - x2 
- ----------------------------------------------------------------------------------------------------------- 
- ----------------------------------------------------------------------------------------------------------- 
- ----------------------------------------------------------------------------------------------------------- 
- ----------------------------------------------------------------------------------------------------------- 
- ----------------------------------------------------------------------------------------------------------- 
- -0---12-12-10-10-13-0---0---12-12-10-10-13-0---0---12-12-10-10-13-0---0---12-12-10-10-13-0---0---12-12-8-8- 

Riff 2b - 00:28 - 00:42 - x2 
- ------------------------------------------------------------------------------------------------- 
- ------------------------------------------------------------------------------------------------- 
- -14-14-14-14-14-14-14-14-14-14-14-14-14-14-14-14-14-14-14-14-14-14-14-14-14-14-14-14-14-14-14-14- 
- -x--x--x--x--x--x--x--x--x--x--x--x--x--x--x--x--x--x--x--x--x--x--x--x--x--x--x--x--x--x--x--x-- 
- -12-12-12-12-12-12-12-12-12-12-12-12-12-12-12-12-12-12-12-12-12-12-12-12-12-12-12-12-12-12-12-12- 
- ------------------------------------------------------------------------------------------------- 

- ------------------------------------------------------------------------------------------------- 
- ------------------------------------------------------------------------------------------------- 
- -15-15-15-15-15-15-15-15-15-15-15-15-15-15-15-15-15-15-15-15-15-15-15-15-15-15-15-15-15-15-15-15- 
- -x--x--x--x--x--x--x--x--x--x--x--x--x--x--x--x--x--x--x--x--x--x--x--x--x--x--x--x--x--x--x--x-- 
- -13-13-13-13-13-13-13-13-13-13-13-13-13-13-13-13-13-13-13-13-13-13-13-13-13-13-13-13-13-13-13-13- 
- ------------------------------------------------------------------------------------------------- 

Riff 3 - 00:42 - 00:48 
- ----------------------------------------------------------------- 
- ----------------------------------------------------------------- 
- ----------------------------------------------------------------- 
- ----------------------------------------------------------------- 
- ----------------------------------------------------------------- 
- -0pbr------------------------------------------------------------ 


Riff 4a, Guitar 1 & 2 - 00:48 - 01:01 - x2                        T 
- ---------------------------------------------------------------------------------- 
- -------------------------------------------------------------------9h12-23p12p9p0- 
- -------------------------------------------------------10h11p10------------------- 
- -------------------------------------------------11h12----------12---------------- 
- -12-12-0-0-0---13-13-0-0-0---12-12-0-0-0---12h13---------------------------------- 
- ---------------------------------------------------------------------------------- 
-                                                                         T 
- ---------------------------------------------------------------------------------- 
- -------------------------------------------------------------------8h11-22p11p8p0- 
- -------------------------------------------------------10h11p10------------------- 
- -------------------------------------------------11h12----------12---------------- 
- -12-12-0-0-0---13-13-0-0-0---12-12-0-0-0---12h13---------------------------------- 
- ---------------------------------------------------------------------------------- 


- --------------------------------------------------------------------------------- 
- --------------------------------------------------------------------------------- 
- ------------------------------------------------------------10h11p10------------- 
- ---------------------------------------------------------12----------12p11------- 
- -12-12-0-0-0---13-13-0-0-0---12-12-0-0-0---13-13-0-0-0---------------------13p12- 
- --------------------------------------------------------------------------------- 
- 
- --------------------------------------------------------------------------------- 
- --------------------------------------------------------------------------------- 
- ------------------------------------------------------------10h11p10------------- 
- ---------------------------------------------------------12----------12p11------- 
- -12-12-0-0-0---13-13-0-0-0---12-12-0-0-0---13-13-0-0-0---------------------13p12- 
- --------------------------------------------------------------------------------- 

Riff 4b - 00:48 - 01:01 
- ------------------------------------------------------------------------------------------------- 
- ------------------------------------------------------------------------------------------------- 
- -14-14-14-14-14-14-14-14-14-14-14-14-14-14-14-14-14-14-14-14-14-14-14-14-14-14-14-14-14-14-14-14- 
- -x--x--x--x--x--x--x--x--x--x--x--x--x--x--x--x--x--x--x--x--x--x--x--x--x--x--x--x--x--x--x--x-- 
- -12-12-12-12-12-12-12-12-12-12-12-12-12-12-12-12-12-12-12-12-12-12-12-12-12-12-12-12-12-12-12-12- 
- ------------------------------------------------------------------------------------------------- 

- ------------------------------------------------------------------------------------------------- 
- ------------------------------------------------------------------------------------------------- 
- -15-15-15-15-15-15-15-15-15-15-15-15-15-15-15-15-15-15-15-15-15-15-15-15-15-15-15-15-15-15-15-15- 
- -x--x--x--x--x--x--x--x--x--x--x--x--x--x--x--x--x--x--x--x--x--x--x--x--x--x--x--x--x--x--x--x-- 
- -13-13-13-13-13-13-13-13-13-13-13-13-13-13-13-13-13-13-13-13-13-13-13-13-13-13-13-13-13-13-13-13- 
- ------------------------------------------------------------------------------------------------- 

Riff 5a, Guitar 1 & 2 - 01:01 - 01:08 
   T         T         T         T         T         T         T         T 
- --------------------------------------------------------------------------------- 
- -22p0h8h11-23p12p9p0-22p0h8h11-23p12p9p0-22p0h8h11-23p12p9p0-22p0h8h11-23p12p9p0- 
- --------------------------------------------------------------------------------- 
- --------------------------------------------------------------------------------- 
- --------------------------------------------------------------------------------- 
- --------------------------------------------------------------------------------- 
   T         T         T         T         T         T         T         T 
- --------------------------------------------------------------------------------- 
- -23p0h9h12-22p11p8p0-23p0h9h12-22p11p8p0-23p0h9h12-22p11p8p0-23p0h9h12-22p11p8p0- 
- --------------------------------------------------------------------------------- 
- --------------------------------------------------------------------------------- 
- --------------------------------------------------------------------------------- 
- --------------------------------------------------------------------------------- 


   T         T         T         T         T         T         T 
- --------------------------------------------------------------------------------- 
- -22p0h8h11-23p12p9p0-22p0h8h11-23p12p9p0-22p0h8h11-23p12p9p0-22p0h8h11----------- 
- --------------------------------------------------------------------------------- 
- --------------------------------------------------------------------------------- 
- --------------------------------------------------------------------------------- 
- --------------------------------------------------------------------------------- 
   T         T         T         T         T         T         T 
- --------------------------------------------------------------------------------- 
- -23p0h9h12-22p11p8p0-23p0h9h12-22p11p8p0-23p0h9h12-22p11p8p0-23p0h9h12----------- 
- --------------------------------------------------------------------------------- 
- --------------------------------------------------------------------------------- 
- --------------------------------------------------------------------------------- 
- --------------------------------------------------------------------------------- 


Riff 5b - 01:01 - 01:08 
- ----------------------------------------------------------------- 
- ----------------------------------------------------------------- 
- ----------------------------------------------------------------- 
- ----------------------------------------------------------------- 
- -11111-11111-11111-11111-11111-1111111-11111-11111-11111-1111---- 
- -11111-11111-11111-11111-11111-1111111-11111-11111-11111-1111---- 
PM ............................................................ 


Riff 6, Guitar 1 & 2 - 01:08 - 01:35 - x2 
- ----------------------------------------------------------------- 
- -8-8---8---8-8---8-8---8---8-8---8-8---8---8-8---8-8---8---8-8--- 
- -x-x---x---x-x---x-x---x---x-x---x-x---x---x-x---x-x---x---x-x--- 
- -8-8---8---8-8---8-8---8---8-8---8-8---8---8-8---8-8---8---8-8--- 
- ----------------------------------------------------------------- 
- ----------------------------------------------------------------- 
- 
- ----------------------------------------------------------------- 
- -5-5---5---5-5---5-5---5---5-5---5-5---5---5-5---5-5---5---5-5--- 
- -x-x---x---x-x---x-x---x---x-x---x-x---x---x-x---x-x---x---x-x--- 
- -5-5---5---5-5---5-5---5---5-5---5-5---5---5-5---5-5---5---5-5--- 
- ----------------------------------------------------------------- 
- ----------------------------------------------------------------- 


- ------------------------------------------------------------------------------------- 
- -12-12---12---12-12---12-12---12---12-12---10-10---10---10-10---10-10---10---10-10--- 
- -x--x----x----x--x----x--x----x----x--x----x--x----x----x--x----x--x----x----x--x---- 
- -12-12---12---12-12---12-12---12---12-12---10-10---10---10-10---10-10---10---10-10--- 
- ------------------------------------------------------------------------------------- 
- ------------------------------------------------------------------------------------- 
- 
- ------------------------------------------------------------------------------------- 
- -8--8----8----8--8----8--8----8----8--8----7--7----7----7--7----7--7----7----7--7---- 
- -x--x----x----x--x----x--x----x----x--x----x--x----x----x--x----x--x----x----x--x---- 
- -8--8----8----8--8----8--8----8----8--8----7--7----7----7--7----7--7----7----7--7---- 
- ------------------------------------------------------------------------------------- 
- ------------------------------------------------------------------------------------- 


- ----------------------------------------------------------------- 
- -5-5---5---5-5---5-5---5---5-5---5-5---5---5-5---5-5---5---5-5--- 
- -x-x---x---x-x---x-x---x---x-x---x-x---x---x-x---x-x---x---x-x--- 
- -5-5---5---5-5---5-5---5---5-5---5-5---5---5-5---5-5---5---5-5--- 
- ----------------------------------------------------------------- 
- ----------------------------------------------------------------- 
- 
- ----------------------------------------------------------------- 
- -8-8---8---8-8---8-8---8---8-8---8-8---8---8-8---8-8---8---8-8--- 
- -x-x---x---x-x---x-x---x---x-x---x-x---x---x-x---x-x---x---x-x--- 
- -8-8---8---8-8---8-8---8---8-8---8-8---8---8-8---8-8---8---8-8--- 
- ----------------------------------------------------------------- 
- ----------------------------------------------------------------- 


- ------------------------------------------------------------------------------------- 
- -8--8----8----8--8----8--8----8----8--8----7--7----7----7--7----7--7----7----7--7---- 
- -x--x----x----x--x----x--x----x----x--x----x--x----x----x--x----x--x----x----x--x---- 
- -8--8----8----8--8----8--8----8----8--8----7--7----7----7--7----7--7----7----7--7---- 
- ------------------------------------------------------------------------------------- 
- ------------------------------------------------------------------------------------- 
- 
- ------------------------------------------------------------------------------------- 
- -12-12---12---12-12---12-12---12---12-12---10-10---10---10-10---10-10---10---10-10--- 
- -x--x----x----x--x----x--x----x----x--x----x--x----x----x--x----x--x----x----x--x---- 
- -12-12---12---12-12---12-12---12---12-12---10-10---10---10-10---10-10---10---10-10--- 
- ------------------------------------------------------------------------------------- 
- ------------------------------------------------------------------------------------- 


Riff 7, Guitar 1 & 2 - 01:35 - 01:41 
- ----------------------------------------------------------------- 
- ----------------------------------------------------------------- 
- -8---------------8---------------8---------------8---------10---- 
- -x---------------x---------------x---------------x---------x----- 
- -6---------------6---------------6---------------6---------8----- 
- ----------------------------------------------------------------- 
- 
- ----------------------------------------------------------------- 
- ----------------------------------------------------------------- 
- -12--------------12--------------12--------------12--------14---- 
- -x---------------x---------------x---------------x---------x----- 
- -10--------------10--------------10--------------10--------12---- 
- ----------------------------------------------------------------- 


Riff 4a - 01:41 - 01:54 
Riff 4b - 01:41 - 01:54 


Riff 8a, Guitar 1 & 2 - 01:41 - 02:08 
- ------------------------------------------------------------------ 
- ------------------------------------------------------------------ 
- ------------------------------------------------------------------ 
- ------------------------------------------------------------------ 
- ------------------------------------------------------------------ 
- -1-000-1-000-1-000-1-000-1-000-1-000-1-000-1-000-1-000-1-000-1-00- 
PM   ...   ...   ...   ...   ...   ...   ...   ...   ...   ...   .. 
- ------------------------------------------------------------------ 
- ------------------------------------------------------------------ 
- ------------------------------------------------------------------ 
- ------------------------------------------------------------------ 
- ------------------------------------------------------------------ 
- -1-000-1-000-1-000-1-000-1-000-1-000-1-000-1-000-1-000-1-000-1-00- 
PM   ...   ...   ...   ...   ...   ...   ...   ...   ...   ...   .. 


- ------------------------------------------------------------------ 
- ------------------------------------------------------------------ 
- ------------------------------------------------------------------ 
- ------------------------------------------------------------------ 
- ------------------------------------------------------------------ 
- -1-000-1-000-1-000-1-000-1-000-1-000-1-000-1-000-1-000-------1-00- 
PM   ...   ...   ...   ...   ...   ...   ...   ...   ...         .. 
- ------------------------------------------------------------------ 
- ------------------------------------------------------------------ 
- ------------------------------------------------------------------ 
- ------------------------------------------------------------------ 
- ------------------------------------------------------------------ 
- -1-000-1-000-1-000-1-000-1-000-1-000-1-000-1-000-1-000-1-000------ 
PM   ...   ...   ...   ...   ...   ...   ...   ...   ...   ... 

Riff 8b - 01:41 - 02:08 - x4 
- ------------------------------------------------- 
- -12-12-12-12-12-12-12-12-12-12-12-12-12-12-12-12- 
- -x--x--x--x--x--x--x--x--x--x--x--x--x--x--x--x-- 
- -12-12-12-12-12-12-12-12-12-12-12-12-12-12-12-12- 
- -------------------------------------------------  
- ------------------------------------------------- 

Riff 6, Guitar 1 & 2 - 02:08 - 02:34 

Riff 9 - 02:34 - 02:41 
- ----------------------------------------------------------------- 
- ----------------------------------------------------------------- 
- -8---------------8---------------8------------------------------- 
- -x---------------x---------------x------------------------------- 
- -6---------------6---------------6------------------------------- 
- ----------------------------------------------------------------- 
- 
- ----------------------------------------------------------------- 
- ----------------------------------------------------------------- 
- -12--------------12--------------12------------------------------ 
- -x---------------x---------------x------------------------------- 
- -10--------------10--------------10------------------------------ 
- ----------------------------------------------------------------- 

Riff 10 - 02:41 - 03:07 - x4 
- --------------------------------------------------------------- 
- --------------------------------------------------------------- 
- --------------------------------------------------------------- 
- --------------------------------------------------------------- 
- --------------------------------------------------------------- 
- -0-----------12--10--13\-0-8-0-0---------7---5---8---7\--0-1-0- 
PM                         .   .                           .   . 

Riff 3 - 03:07 - 03:14 
Riff 1 - 03:07 - 03:34 
Riff 2a - 03:34 - 04:26 
Riff 2b - 03:34 - 04:26 

Symbols 

PM... Palm Mute notes with (...) under them 
AP... Alternate Pick notes with (...) under them 
h     Hammer On 
p     Pull Off 
    Harmonic 
/     Slide Up 
\     Slide Down 
x     Dead Note 
b     Bend 
hb    Hold Bend 
pb    Pre-Bend 
r     Release Bend 
(x )  Play Notes x amount of times 
~     Let Ring 
\\\   Pick Slide Down 
///   Pick Slide Up 
/ 3 \ Notes are triplets (3 notes in the space of two) 
w\    Whammy Bar Down 
w/    Whammy Bar Up 
wh    Whammy Bar Hold 
T     Right Hand Tap 
L     Left Hand Tap 

:) 
  

top 5 | oh, sleeper
top rock'n roll
Outras músicas do artista letras do(a) Oh, Sleeper
Top cifras »Top artistas »
Petaxxon Comunicação Online
Cifras.com.br - Melhor e mais completo site de cifras e tablaturas do Brasil
Mais de 1 milhão de acordes de músicas cadastradas desde 2003
As informações contidas no nosso site são colaborações de seus usuários e podem conter erros, sendo assim, não nos responsabilizamos sobre nenhuma destas.
close
menos
mais
close
Cor dos acordes:

Cor da letra:

 

save
close
close
 
redimensionar