Cifras e Tablaturas
Orchid

Orchid

New Jersey Vs Valhalla

Cifras Cancelar Versão de Impressão

Orchid - New Jersey Vs Valhalla

Tom: D#

  			

intro x4 
D#|------------------------------------| 
A#|------------------------------------| 
F#|------------------------------------| 
C#|----------9-------------------------| 
G#|----7-7-7---7-7-7-7-----7-----6-6-6-| 
D#|--------------------8-8---8-7-------| 

verse x4 
D#|------------------------------------| 
A#|------------------------------------| 
F#|----9---9---9---9-9-5-5-5-4-4-4-5-5-| 
C#|----9---9---9---9-9-5-5-5-4-4-4-5-5-| 
G#|----7---7---7---7-7-3-3-3-2-2-2-5-5-| 
D#|----0---0---0---0-0-0-0-0-0-0-0-3-3-| 

 x2 
D#|--------------------------------------------------------------------| 
A#|--------------------------------------------------------------------| 
F#|----5---5---5---5---5---5---5---------------------------------------| 
C#|----5---5---5---5---5---5---5---5---2---2---2---2---2---2---2---2---| 
G#|----3---3---3---3---3---3---3---5---2---2---2---2---2---2---2---2---| 
D#|----0---0---0---0---0---0---0---3---0---0---0---0---0---0---0---0---| 

D#|------------------------------------------------------------------| 
A#|------------------------------------------------------------------| 
F#|----5---5---5---5---5---5---5-----------------------4/5-5/7-7\5\4-| 
C#|----5---5---5---5---5---5---5---5---2---2---2---2-----------------| 
G#|----3---3---3---3---3---3---3---5---2---2---2---2---2/3-3/5-5\3\2-| 
D#|----0---0---0---0---0---0---0---3---0---0---0---0-----------------| 

verse x4 
D#|------------------------------------| 
A#|------------------------------------| 
F#|----9---9---9---9-9-5-5-5-4-4-4-5-5-| 
C#|----9---9---9---9-9-5-5-5-4-4-4-5-5-| 
G#|----7---7---7---7-7-3-3-3-2-2-2-5-5-| 
D#|----0---0---0---0-0-0-0-0-0-0-0-3-3-| 

 x2 
D#|--------------------------------------------------------------------| 
A#|--------------------------------------------------------------------| 
F#|----5---5---5---5---5---5---5---------------------------------------| 
C#|----5---5---5---5---5---5---5---5---2---2---2---2---2---2---2---2---| 
G#|----3---3---3---3---3---3---3---5---2---2---2---2---2---2---2---2---| 
D#|----0---0---0---0---0---0---0---3---0---0---0---0---0---0---0---0---| 

D#|------------------------------------------------------------------| 
A#|------------------------------------------------------------------| 
F#|----5---5---5---5---5---5---5-----------------------4/5-5/7-7\5\4-| 
C#|----5---5---5---5---5---5---5---5---2---2---2---2-----------------| 
G#|----3---3---3---3---3---3---3---5---2---2---2---2---2/3-3/5-5\3\2-| 
D#|----0---0---0---0---0---0---0---3---0---0---0---0-----------------| 

   verse x4 Fast 
D#|--------------------------------------| 
A#|--------------------------------------| 
F#|----9--9--9-9-------5--5--4-----12----| 
C#|----9--9--9-9-------5--5--4-----12----| 
G#|----7--7--7-7-------3--3--2-----10----| 
D#|----0--0--0-0-------0--0--0-----0-----| 

 x2 FastSlow @ End 
D#|------------------------------------------------------------------| 
A#|------------------------------------------------------------------| 
F#|----5--5--5-5-------5--5--5---------------------------------------| 
C#|----5--5--5-5-------5--5--5-----5---2--2--2-2-------2--2--2---2---| 
G#|----3--3--3-3-------3--3--3-----5---2--2--2-2-------2--2--2---2---| 
D#|----0--0--0-0-------0--0--0-----3---0--0--0-0-------0--0--0---0---| 

D#|------------------------------------------------------------------| 
A#|------------------------------------------------------------------| 
F#|----5--5--5-5-------5--5--5-------------------------4/5-5/7-7\5\4-| 
C#|----5--5--5-5-------5--5--5-----5---2--2--2-2---------------------| 
G#|----3--3--3-3-------3--3--3-----5---2--2--2-2-------2/3-3/5-5\3\2-| 
D#|----0--0--0-0-------0--0--0-----3---0--0--0-0---------------------| 

bridge x8 
D#|-------------------------------------| 
A#|-------------------------------------| 
F#|-------------------------------------| 
C#|----2---2---2-------2-2-2-2-2-2-5----| 
G#|----2---2---2-------2-2-2-2-2-2-5----| 
D#|----0---0---0-------0-0-0-0-0-0-3----| 

bridge 2 x3.5 
D#|--------------------------------------------------------------------| 
A#|--------------------------------------------------------------------| 
F#|------------------------------------------------4-----------4-------| 
C#|------------------------------------2-2-2-2-2-2---2-2-2-2-2---2-2-2-| 
G#|----3-3-3-3-3-3-3-3-3-3-3-3-3-3-2-2---------------------------------| 
D#|--------------------------------------------------------------------| 

D#|--------------------------------------------------------------------| 
A#|--------------------------------------------------------------------| 
F#|------------------------------------------------4-----------4-------| 
C#|----------------5-5---------5--\(4)-2-2-2-2-2-2---2-2-2-2-2---2-2-2-| 
G#|----3-3-3-3-3-3-----3-3-3-3---3\-2----------------------------------| 
D#|--------------------------------------------------------------------| 

D#|--------------------------------------------------------------------| 
A#|--------------------------------------------------------------------| 
F#|------------------------------------------------4-----------4-------| 
C#|----------------5-5---------5--\(4)-2-2-2-2-2-2---2-2-2-2-2---2-2-2-| 
G#|----3-3-3-3-3-3-----3-3-3-3---3\-2----------------------------------| 
D#|--------------------------------------------------------------------| 
PM  . . . . . .   . . . . .   .  .     . . . . . .   . . . . .   . . . 
only mute the A String a little bit while letting the D string ring normally 

D#|--------------------------------------| 
A#|--------------------------------------| 
F#|--------------------------------------| 
C#|----------------5-5---------5--\(4)---| 
G#|----3-3-3-3-3-3-----3-3-3-3---3\-2----| 
D#|--------------------------------------| 
PM  . . . . . .   . . . . .   .  . 

outro 
D#|----0-| 
A#|----0-| 
F#|----9-| 
C#|----9-| 
G#|----7-| 
D#|----0-| 
just tremolo the shit out of this chord 



************************************ 

| /   Slide up 
| \   Slide down 
| PM  Palm mute 
  

************************************ 
    	
fixar
fixar inscrever-se

enviado porenviado por: renejunior
cifra enviadaCorrigida por: sem correções
logo top cifrasComente
ico música do artistaMúsicas deste artista
ico curtiuCurtiu?
ico destaqueDestaque
Petaxxon Comunicação Online

Cifras.com.br - Melhor e mais completo site de cifras e tablaturas do Brasil Mais de 1 milhão de acordes de músicas cadastradas desde 2003
As informações contidas no nosso site são colaborações de seus usuários e podem conter erros, sendo assim, não nos responsabilizamos sobre nenhuma destas.

close
menos
mais
close
Cor dos acordes:

Cor da letra:

close
Alinhar acordes a direita Alinhar acordes a esquerda Alinhar acordes em baixo Alinhar acordes no topo
close
  Mostrar todos os acordes Esconder acordes muito fáceis Esconder acordes fáceis Esconder acordes intermediários
redimensionar
glossário