Cifras e Tablaturas
Our Last Night

Our Last Night

Tongue Tied

Cifras Cancelar Versão de Impressão
cifras

Our Last Night - Tongue Tied

fixar na tela  
Exibindo: vídeo-aula ver clipes redimensionar

Tom:

  
Intro (00:00-00:22) 

Guitar 1 
e|---------------| 
B|---------------|  (00:02-00:08) 
G|-----5--3--7---|  
D|--5--5--3--7---|  No distortion 
A|--5--3--1--5---| 
E|--3------------| 

e|-----------------------------------------------| 
B|-----------------------------------------------| (00:09-00:21)  
G|------------55555555--33333333--77777777-------|  
D|--55555555--55555555--33333333--77777777--(x2)-| 
A|--55555555--33333333--11111111--55555555-------| 
E|--33333333-------------------------------------|  distortion 

Guitar 2 
e|-----------------------------------------------------| 
B|--------------------------15-12-14-15-12-14-15-12----| (00:02-00:08) 
G|--15-12-14-15-12-14-15-12----------------------------| 
D|-----------------------------------------------------| no distortion 
A|-----------------------------------------------------| 
E|-----------------------------------------------------| 

e|--------------------------------------15-12-14-15----| 
B|--------------------------15-12-14-15----------------|  no distortion 
G|--15-12-14-15-12-14-15-12----------------------------| 
D|-----------------------------------------------------| 
A|-----------------------------------------------------| 
E|-----------------------------------------------------| 

e|-----------------------------------------------------| 
B|--------------------------15-12-14-15-12-14-15-12----| (00:08-00:21) 
G|--15-12-14-15-12-14-15-12----------------------------| 
D|-----------------------------------------------------|  distortion 
A|-----------------------------------------------------| 
E|-----------------------------------------------------| 

e|--------------------------------------15-12-14-15--------| 
B|--------------------------15-12-14-15--------------------|  distortion 
G|--15-12-14-15-12-14-15-12--------------------------(x2)--| 
D|---------------------------------------------------------| 
A|---------------------------------------------------------| 
E|---------------------------------------------------------| 

Verse  
(00:22-00:50) 

Guitar 1 

e|-------------------| 
B|-------------------|  (00:23-00:35) 
G|-----5--3--7-------|  
D|--5--5--3--7--(x2)-|  No distortion 
A|--5--3--1--5-------| 
E|--3----------------| 

e|-------------------------------------------------| 
B|-------------------------------------------------| (00:36-00:48)  
G|------------55555555--33333333--77777777---------|  
D|--55555555--55555555--33333333--77777777-xx-(x2)-| 
A|--55555555--33333333--11111111--55555555-xx------| 
E|--33333333-------------------------------xx------|  distortion 

Guitar 2  
e|-----------------------------------------------------| 
B|--------------------------15-12-14-15-12-14-15-12----| (00:22-00:35) 
G|--15-12-14-15-12-14-15-12----------------------------| 
D|-----------------------------------------------------| no distortion 
A|-----------------------------------------------------| 
E|-----------------------------------------------------| 

e|--------------------------------------15-12-14-15--------| 
B|--------------------------15-12-14-15--------------------|  no distortion 
G|--15-12-14-15-12-14-15-12--------------------------------| 
D|--------------------------------------------------(x2)---| 
A|---------------------------------------------------------| 
E|---------------------------------------------------------| 


e|-----------------------------------------------------| 
B|-----------------------------------------------------| (00:36-00:48) 
G|--12-(x16)---14-(x16)---15-(x16)---17-(x16)----------| 
D|-----------------------------------------------(x2)--| distortion 
A|-----------------------------------------------------| 
E|-----------------------------------------------------|  

Chorus  
(00:49-01:18) 

Only guitar 1 (start at 01:10) 

e|---------------| 
B|---------------|  (01:10-01:18) 
G|-----5--3--7---|  
D|--5--5--3--7---|  No distortion 
A|--5--3--1--5---| 
E|--3------------| 

Interlude (01:20-01:39) 
Guitar 1  

e|-------------------| 
B|-------------------|  (01:20-01:33) 
G|-----5--3--7-------|  
D|--5--5--3--7--(x2)-|  No distortion 
A|--5--3--1--5-------| 
E|--3----------------| 


e|------------------------------------------| 
B|------------------------------------------| (01:33-01:40)  
G|------------55555555--33333333--77777777--|  
D|--55555555--55555555--33333333--77777777--| 
A|--55555555--33333333--11111111--55555555--| 
E|--33333333--------------------------------|  distortion 

Guitar 2 

e|-----------------------------------------------------| 
B|--------------------------15-12-14-15-12-14-15-12----| (01:20-01:26) 
G|--15-12-14-15-12-14-15-12----------------------------| 
D|-----------------------------------------------------| no distortion 
A|-----------------------------------------------------| 
E|-----------------------------------------------------| 

e|--------------------------------------15-12-14-15----| 
B|--------------------------15-12-14-15----------------|  no distortion 
G|--15-12-14-15-12-14-15-12----------------------------| 
D|-----------------------------------------------------| 
A|-----------------------------------------------------| 
E|-----------------------------------------------------| 




e|-----------------------------------------------------| 
B|--------------------------15-12-14-15-12-14-15-12----| (01:26-01:39) 
G|--15-12-14-15-12-14-15-12----------------------------| 
D|-----------------------------------------------------|  distortion 
A|-----------------------------------------------------| 
E|-----------------------------------------------------| 

e|--------------------------------------15-12-14-15--------| 
B|--------------------------15-12-14-15--------------------|  distortion 
G|--15-12-14-15-12-14-15-12--------------------------(x2)--| 
D|---------------------------------------------------------| 
A|---------------------------------------------------------| 
E|---------------------------------------------------------| 

Verse  
(01:40-02:05) 

Guitar 1 

e|-------------------| 
B|-------------------|  (01:40-01:52) 
G|-----5--3--7-------|  
D|--5--5--3--7--(x2)-|  No distortion 
A|--5--3--1--5-------| 
E|--3----------------| 


e|---------------------------------------------| 
B|---------------------------------------------| (01:53-01:59)  
G|------------55555555--33333333--77777777-----|  
D|--55555555--55555555--33333333--77777777-xx--| 
A|--55555555--33333333--11111111--55555555-xx--| 
E|--33333333-------------------------------xx--|  distortion 

e|--------------------------------------| 
B|--------------------------------------| (01:59-02:06)  
G|------------55555555--33333333--7-----|  
D|--55555555--55555555--33333333--7-xxx-| 
A|--55555555--33333333--11111111--5-xxx-| 
E|--33333333------------------------xxx-|  distortion 


Guitar 2 

e|-----------------------------------------------------| 
B|--------------------------15-12-14-15-12-14-15-12----| (01:40-01:53) 
G|--15-12-14-15-12-14-15-12----------------------------| 
D|-----------------------------------------------------| no distortion 
A|-----------------------------------------------------| 
E|-----------------------------------------------------| 

e|--------------------------------------15-12-14-15--------| 
B|--------------------------15-12-14-15--------------------|  no distortion 
G|--15-12-14-15-12-14-15-12--------------------------(x2)--| 
D|---------------------------------------------------------| 
A|---------------------------------------------------------| 
E|---------------------------------------------------------| 


e|-----------------------------------------------------| 
B|-----------------------------------------------------| (01:53-02:06) 
G|--12-(x16)---14-(x16)---15-(x16)---17-(x16)----------| 
D|-----------------------------------------------(x2)--| distortion 
A|-----------------------------------------------------| 
E|-----------------------------------------------------|  

Chorus 
(02:06-02:47) 

Guitar 1 

e|---------------------------| 
B|---------------------------|  (02:06-02:27) 
G|-------555--333--777-------|  
D|--555--555--333--777--(x2)-|   distortion 
A|--555--333--111--555-------| 
E|--333----------------------| 

e|------------------------------| 
B|------------------------------|  (02:28-02:47) 
G|-------555--3x3x3--777--------|  
D|--555--555--3x3x3--777---(x2)-|   distortion 
A|--555--333--1x1x1--555--------| 
E|--333-------------------------| 

Guitar 2 (start at 02:28) 

e|-----------------------------------------------------| 
B|-----------------------------------------------------| (02:28-02:47) 
G|--12-(x16)---14-(x16)---15-(x16)---17-(x16)----------| 
D|-----------------------------------------------(x2)--| distortion 
A|-----------------------------------------------------| 
E|-----------------------------------------------------|  

Solo  
(02:49-03:13) 
Guitar 1 
e|------------------------------------------------| 
B|------------------------------------------------| 
G|--------------5----------3----------7-----------| (02:49-03:13) 
D|---5----------5----------3----------7----(x2)---| 
A|---5----------3----------1----------5-----------| distortion 
E|---3--------------------------------------------| 


Guitar 2 

e|---------------------------------------------------------------------------| 
B|-----------16-------------16-------------16-15-13~11-13b-13br-11-----------| 
G|--15-12-14----12-15-12-14----12-15-12-14-------------------------12--------| (02:49-03:02) 
D|---------------------------------------------------------------------------| 
A|---------------------------------------------------------------------------| distortion 
E|---------------------------------------------------------------------------| 

e|------------------------------------------------------| 
B|-----------16-------------16-------------16-15-13~----| 
G|--15-12-14----12-15-12-14----12-15-12-14--------------| (03:02-03:13) 
D|------------------------------------------------------| 
A|------------------------------------------------------| distortion 
E|------------------------------------------------------| 

Final Chorus  
(03:15-03:47) 

Guitar 1 

e|--------------------------------------------------------------| 
B|--------------------------------------------------------------| (03:20-03:36)  
G|--33333333--77777777------------55555555--33333333--77777777--|  
D|--33333333--77777777--55555555--55555555--33333333--77777777--| 
A|--11111111--55555555--55555555--33333333--11111111--55555555--| 
E|----------------------33333333--------------------------------|  distortion 

e|--------------------------| 
B|--------------------------|  (03:36-03:46) 
G|-------555--3x3x3--777----|  
D|--555--555--3x3x3--777----|   distortion 
A|--555--333--1x1x1--555----| 
E|--333---------------------| 


Guitar 2 (start at 03:36) 

e|-------------------------------------------------| 
B|-------------------------------------------------| (03:36-03:46) 
G|--12-(x16)---14-(x16)---15-(x16)---17-(x16)------| 
D|-------------------------------------------------| distortion 
A|-------------------------------------------------| 
E|-------------------------------------------------|  

End  
(03:46-04:00) 

Guitar 1 

e|-------------------| 
B|-------------------|  (03:46-04:00) 
G|-----5--3--7-------|  
D|--5--5--3--7--(x2)-|  No distortion 
A|--5--3--1--5-------| 
E|--3----------------| 

Guitar 2 

e|-----------------------------------------------------| 
B|--------------------------15-12-14-15-12-14-15-12----| (03:46-04:00) 
G|--15-12-14-15-12-14-15-12----------------------------| 
D|-----------------------------------------------------| no distortion 
A|-----------------------------------------------------| 
E|-----------------------------------------------------| 

e|--------------------------------------15-12-14-15--------| 
B|--------------------------15-12-14-15--------------------|  no distortion 
G|--15-12-14-15-12-14-15-12--------------------------(x2)--| 
D|---------------------------------------------------------| 
A|---------------------------------------------------------| 
E|---------------------------------------------------------| 


************************************ 

| x   Dead note 
| b   Bend 
| br  Bend release 
| ~   Vibrato 

************************************ 
  

top 5 | our last night
top rock'n roll
Outras músicas do artista letras do(a) Our Last Night
Top cifras »Top artistas »
Petaxxon Comunicação Online
Cifras.com.br - Melhor e mais completo site de cifras e tablaturas do Brasil
Mais de 1 milhão de acordes de músicas cadastradas desde 2003
As informações contidas no nosso site são colaborações de seus usuários e podem conter erros, sendo assim, não nos responsabilizamos sobre nenhuma destas.
close
menos
mais
close
Cor dos acordes:

Cor da letra:

 

save
close
close
 
redimensionar