Cifras e Tablaturas
Pablo

Pablo

Homem Nao Chora

Cifras Cancelar Versão de Impressão
cifras

Pablo - Homem Nao Chora

fixar na tela  
Exibindo: vídeo-aula ver clipes redimensionar
  Em  C  G  D 

Solo Intro: 

Parte 1 

E|-------------------------------------------| 
B|----------5-7-8-7-5-7/8~-------------------| 
G|-----2/4-----------------------------------| 
D|-------------------------------------------| 
A|-------------------------------------------| 
E|-------------------------------------------| 


Parte 2 

E|---------------------------------------------------------| 
B|---------------------------------------------------------| 
G|----5-7-9-7-5-----2-4/5-4-4-2-2h4--4-4-4-2-0------0-4~---| 
D|-3/5-----------5------------------------------4----------| 
A|---------------------------------------------------------| 
E|---------------------------------------------------------| 


Parte 3    

E|-------------------------------------------| 
B|---7-8-10-8-7------------------------------| 
G|--------------9-12-11-9--7-7h9~------------| 
D|-------------------------------------------| 
A|-------------------------------------------| 
E|-------------------------------------------| 

Base Solo Principal: Em  C  G  D 

Solo Intro: 

Parte 1 

E|-------------------------------------------| 
B|----------5-7-8-7-5-7/8~-------------------| 
G|-----2/4-----------------------------------| 
D|-------------------------------------------| 
A|-------------------------------------------| 
E|-------------------------------------------| 


Parte 2 

E|---------------------------------------------------------| 
B|---------------------------------------------------------| 
G|----5-7-9-7-5-----2-4/5-4-4-2-2h4--4-4-4-2-0------7-7~---| 
D|-3/5-----------5------------------------------4----------| 
A|---------------------------------------------------------| 
E|---------------------------------------------------------| 


Parte 3    

E|-------------------------------------------| 
B|---7-8-10-8-7---------10-12-13-------------| 
G|--------------9-12-11----------9-9~--------| 
D|-------------------------------------------| 
A|-------------------------------------------| 
E|-------------------------------------------| 
 
  

cifra enviadasem correções
enviado porenviada por:andrsouza
top 5 | pablo
top sertanejo
Outras músicas do artista letras do(a) Pablo
Top cifras »Top artistas »
Petaxxon Comunicação Online
Cifras.com.br - Melhor e mais completo site de cifras e tablaturas do Brasil
Mais de 1 milhão de acordes de músicas cadastradas desde 2003
As informações contidas no nosso site são colaborações de seus usuários e podem conter erros, sendo assim, não nos responsabilizamos sobre nenhuma destas.
close
menos
mais
close
Cor dos acordes:

Cor da letra:

 

save
close
close
 
redimensionar