Cifras e Tablaturas
Pain of Salvation

Pain of Salvation

Full Throttle Tribe

Cifras Cancelar Versão de Impressão
cifras

Pain of Salvation - Full Throttle Tribe

fixar na tela  
Exibindo: vídeo-aula ver clipes redimensionar
  
Tuning A E A D G B e 


Intro 
===== 

   w/light palm mute                                                           x4 
e||----------------------|----------------------||------------------------------|| 
B||----------------------|----------------------||------------------------------|| 
G||o---------------------|---------------------o||o----------------------------o|| 
D||----------------------|----------------------||------------------------------|| 
A||o---------------------|---------------------o||o----------------------------o|| 
E||----------------------|----------------------||------------------------------|| 
A||--0----0----0----0----|--0----0----0----0----||--0------0------0------0------|| 


Main riff 
========= 

       P.M.---|        P.M.---|              P.M.---|          P.M.| 
e|-------------------------------------|------------------------------------| 
B|-------------------------------------|------------------------------------| 
G|-------------------------------------|------------------------------------| 
D|--3--3--3--3--3------3--3--3--3------|------------------------------------| 
A|--3--3--3--3--3------3--3--3--3------|--5--5--5--5--5--------5--5--5------| 
E|--1--1--1--1--1------1--1--1--1------|--5--5--5--5--5--------5--5--5------| 
A|-------------------------------------|--5--5--5--5--5--------5--5--5------| 

       P.M.---|        P.M.---| 
e|---------------------------------|------------------------| 
B|---------------------------------|------------------------| 
G|---------------------------------|------------------------| 
D|---------------------------------|------------------------| 
A|--0--0--0--0--0------0--0--0--0--|--0----2----3----/10----| 
E|--0--0--0--0--0------0--0--0--0--|--0----2----3----/10----| 
A|--0--0--0--0--0------0--0--0--0--|--0----2----3----/10----| 


Verse 
===== 
  
   w/light palm mute-------------------------------------| 
e|------------------------------|------------------------------| 
B|------------------------------|------------------------------| 
G|------------------------------|------------------------------| 
D|------------------------------|------------------------------| 
A|--7------7------7------7------|--5------5------5------5------| 
E|--7------7------7------7------|--5------5------5------5------| 
A|--7------7------7------7------|--5------5------5------5------| 

    w/light palm mute-----| 
e|------------------------------|---------------------| 
B|------------------------------|---------------------| 
G|------------------------------|---------------------| 
D|------------------------------|---------------------| 
A|--0------0------0------0------|--7----7----7----8---| 
E|--0------0------0------0------|--7----7----7----7---| 
A|--0------0------0------0------|--7----7----7----7---| 

           w/light palm mute-----------------------------|     
e|------------------------------|------------------------------| 
B|------------------------------|------------------------------| 
G|------------------------------|------------------------------| 
D|------------------------------|------------------------------| 
A|--5------5------5------5------|--0------0------0------0------| 
E|--5------5------5------5------|--0------0------0------0------| 
A|--5------5------5------5------|--0------0------0------0------| 

    w/light palm mute-----| 
e|------------------------------|---------------------| 
B|------------------------------|---------------------| 
G|------------------------------|---------------------| 
D|------------------------------|---------------------| 
A|--3------3------3------3------|--7----7----7----8---| 
E|--3------3------3------3------|--7----7----7----7---| 
A|--3------3------3------3------|--7----7----7----7---| 

   w/light palm mute--------------------------------------------| 
e|-------------------------------------|------------------------------| 
B|-------------------------------------|------------------------------| 
G|--9-9-----9-9------------------------|------------------------------| 
D|------9-9-----9----------------------|------------------------------| 
A|--(7)-----------7------7------7------|--5------5------5------5------| 
E|--(7)-----------7------7------7------|--5------5------5------5------| 
A|--(7)-----------7------7------7------|--5------5------5------5------| 
     ^notes in ( ) played by one guitar, other notes played by another guitar 

    w/light palm mute-----| 
e|------------------------------|---------------------| 
B|------------------------------|---------------------| 
G|------------------------------|---------------------| 
D|------------------------------|---------------------| 
A|--0------0------0------0------|--7----7----7----8---| 
E|--0------0------0------0------|--7----7----7----7---| 
A|--0------0------0------0------|--7----7----7----7---| 

           w/light palm mute-----------------------------|     
e|------------------------------|------------------------------| 
B|------------------------------|------------------------------| 
G|------------------------------|------------------------------| 
D|------------------------------|------------------------------| 
A|--5------5------5------5------|--0------0------0------0------| 
E|--5------5------5------5------|--0------0------0------0------| 
A|--5------5------5------5------|--0------0------0------0------| 

    w/light palm mute-----| 
e|------------------------------|---------------------| 
B|------------------------------|---------------------| 
G|------------------------------|---------------------| 
D|------------------------------|---------------------| 
A|--3------3------3------3------|--7----7----7----8---| 
E|--3------3------3------3------|--7----7----7----7---| 
A|--3------3------3------3------|--7----7----7----7---| 


Chorus 
====== 

        P.M.---|        P.M.---|              P.M.---|          P.M.| 
e||-------------------------------------|------------------------------------| 
B||-------------------------------------|------------------------------------| 
G||o------------------------------------|------------------------------------| 
D||--3--3--3--3--3------3--3--3--3------|------------------------------------| 
A||o-3--3--3--3--3------3--3--3--3------|--5--5--5--5--5--------5--5--5------| 
E||--1--1--1--1--1------1--1--1--1------|--5--5--5--5--5--------5--5--5------| 
A||-------------------------------------|--5--5--5--5--5--------5--5--5------| 

       P.M.---|        P.M.---| 
e|---------------------------------|------------------------|| 
B|---------------------------------|------------------------|| 
G|---------------------------------|-----------------------o|| 
D|---------------------------------|------------------------|| 
A|--0--0--0--0--0------0--0--0--0--|--0----2----3----/10---o|| 
E|--0--0--0--0--0------0--0--0--0--|--0----2----3----/10----|| 
A|--0--0--0--0--0------0--0--0--0--|--0----2----3----/10----|| 


Verse 
===== 
  
   w/light palm mute-------------------------------------| 
e|------------------------------|------------------------------| 
B|------------------------------|------------------------------| 
G|------------------------------|------------------------------| 
D|------------------------------|------------------------------| 
A|--7------7------7------7------|--5------5------5------5------| 
E|--7------7------7------7------|--5------5------5------5------| 
A|--7------7------7------7------|--5------5------5------5------| 

    w/light palm mute-----| 
e|------------------------------|---------------------| 
B|------------------------------|---------------------| 
G|------------------------------|---------------------| 
D|------------------------------|---------------------| 
A|--0------0------0------0------|--7----7----7----8---| 
E|--0------0------0------0------|--7----7----7----7---| 
A|--0------0------0------0------|--7----7----7----7---| 

           w/light palm mute-----------------------------|     
e|------------------------------|------------------------------| 
B|------------------------------|------------------------------| 
G|------------------------------|------------------------------| 
D|------------------------------|------------------------------| 
A|--5------5------5------5------|--0------0------0------0------| 
E|--5------5------5------5------|--0------0------0------0------| 
A|--5------5------5------5------|--0------0------0------0------| 

    w/light palm mute-----| 
e|------------------------------|---------------------| 
B|------------------------------|---------------------| 
G|------------------------------|---------------------| 
D|------------------------------|---------------------| 
A|--3------3------3------3------|--7----7----7----8---| 
E|--3------3------3------3------|--7----7----7----7---| 
A|--3------3------3------3------|--7----7----7----7---| 

   w/light palm mute--------------------------------------------| 
e|-------------------------------------|------------------------------| 
B|-------------------------------------|------------------------------| 
G|--9-9-----9-9------------------------|------------------------------| 
D|------9-9-----9----------------------|------------------------------| 
A|--(7)-----------7------7------7------|--5------5------5------5------| 
E|--(7)-----------7------7------7------|--5------5------5------5------| 
A|--(7)-----------7------7------7------|--5------5------5------5------| 
     ^notes in ( ) played by one guitar, other notes played by another guitar 

    w/light palm mute-----| 
e|------------------------------|---------------------| 
B|------------------------------|---------------------| 
G|------------------------------|---------------------| 
D|------------------------------|---------------------| 
A|--0------0------0------0------|--7----7----7----8---| 
E|--0------0------0------0------|--7----7----7----7---| 
A|--0------0------0------0------|--7----7----7----7---| 

           w/light palm mute-----------------------------|     
e|------------------------------|------------------------------| 
B|------------------------------|------------------------------| 
G|------------------------------|------------------------------| 
D|------------------------------|------------------------------| 
A|--5------5------5------5------|--0------0------0------0------| 
E|--5------5------5------5------|--0------0------0------0------| 
A|--5------5------5------5------|--0------0------0------0------| 

    w/light palm mute-----| 
e|------------------------------|---------------------| 
B|------------------------------|---------------------| 
G|------------------------------|---------------------| 
D|------------------------------|---------------------| 
A|--3------3------3------3------|--7----7----7----8---| 
E|--3------3------3------3------|--7----7----7----7---| 
A|--3------3------3------3------|--7----7----7----7---| 


Chorus 
====== 

        P.M.---|        P.M.---|              P.M.---|          P.M.| 
e||-------------------------------------|------------------------------------| 
B||-------------------------------------|------------------------------------| 
G||o------------------------------------|------------------------------------| 
D||--3--3--3--3--3------3--3--3--3------|------------------------------------| 
A||o-3--3--3--3--3------3--3--3--3------|--5--5--5--5--5--------5--5--5------| 
E||--1--1--1--1--1------1--1--1--1------|--5--5--5--5--5--------5--5--5------| 
A||-------------------------------------|--5--5--5--5--5--------5--5--5------| 

       P.M.---|        P.M.---| 
e|---------------------------------|------------------------|| 
B|---------------------------------|------------------------|| 
G|---------------------------------|-----------------------o|| 
D|---------------------------------|------------------------|| 
A|--0--0--0--0--0------0--0--0--0--|--0----2----3----/10---o|| 
E|--0--0--0--0--0------0--0--0--0--|--0----2----3----/10----|| 
A|--0--0--0--0--0------0--0--0--0--|--0----2----3----/10----|| 


Bridge/Instrumental 
=================== 

Gtr. 1                                                  x6                      x2  both gtrs.        fade out 
e||------------------------------|----------------------||----------------------||---------------------------| 
B||------------------------------|----------------------||----------------------||---------------------------| 
G||o-9------9------9------9------|--9----9----9----9---o||o-9----9----9----9---o||---------------------------| 
D||--x------x------x------x------|--x----x----x----x----||--x----x----x----x----||---------------------------| 
A||o-8------8------8------8------|--6----6----6----6---o||o-6----6----6----6---o||--0------------------------| 
E||--8------8------8------8------|--6----6----6----6----||--6----6----6----6----||--0------------------------| 
A||--8------8------8------8------|--6----6----6----6----||--6----6----6----6----||--0------------------------| 

Gtr. 2 

Copies Gtr. 1 for the first part of the riff, then just tremolo picks 16th notes of this chord until the  
A5 chord leading into the piano section: 

e|----------| 
B|----------| 
G|--9-------| 
D|--x-------| 
A|--7-------| 
E|----------| 
A|----------| 

Guitar tacet through piano section, though here's a rough adaptation of the piano part: 
  
  (clean, fingerpicked) 
              x4           x4           x4 
e||-----------||-----------||-----------|| 
B||------0----||------0----||------0----|| 
G||o-------5-o||o---------o||o-------5-o|| 
D||-----------||--------10-||-----------|| Repeat last two sequences twice 
A||o---------o||o---------o||o---------o|| 
E||----5------||----8------||----5------|| 
A||--0--------||--8--------||--5--------|| 

lyrics start 
e||-----------------------------------------------------------------------| 
B||------0--------0--------0--------0--------0-------0-------0-------0----| 
G||o-------------------------------------------5-------5-------5-------5--| 
D||--------10-------10-------10-------10----------------------------------| 
A||o----------------------------------------------------------------------| 
E||----8--------8--------8--------8--------5-------5-------5-------5------| 
A||--8--------8--------8--------8--------5-------5-------5-------5--------| 

e|-------------------------------------------------------------------|| 
B|------0-------0-------0-------0-------0-------0-------0-------0----|| 
G|--------5-------5-------5-------5-------5-------5-------5-------5-o|| 
D|-------------------------------------------------------------------|| 
A|------------------------------------------------------------------o|| 
E|----5-------5-------5-------5-------5-------2-------3-------5------|| 
A|--0-------0-------0-------0-------0-------2-------3-------5--------|| 

fade out, then the guitar comes back in: 
Gtr. 1                                                           x4 
e||----------------------------------|---------------------------|| 
B||----------------------------------|---------------------------|| 
G||o-14------14------14------14------|--14----14----14----14----o|| 
D||--x-------x-------x-------x-------|--x-----x-----x-----x------|| 
A||o-13------13------13------13------|--11----11----11----11----o|| 
E||--13------13------13------13------|--11----11----11----11-----|| 
A||--13------13------13------13------|--11----11----11----11-----|| 

Gtr. 2  

Copy gtr. 1 for first three repeats, then tremolo pick 16th notes of this note: 

e|----------| 
B|----------| 
G|--14------| 
D|--x-------| 
A|--12------| 
E|----------| 
A|----------| 


Chorus 
====== 

        P.M.---|        P.M.---|              P.M.---|          P.M.| 
e||-------------------------------------|------------------------------------| 
B||-------------------------------------|------------------------------------| 
G||o------------------------------------|------------------------------------| 
D||--3--3--3--3--3------3--3--3--3------|------------------------------------| 
A||o-3--3--3--3--3------3--3--3--3------|--5--5--5--5--5--------5--5--5------| 
E||--1--1--1--1--1------1--1--1--1------|--5--5--5--5--5--------5--5--5------| 
A||-------------------------------------|--5--5--5--5--5--------5--5--5------| 

       P.M.---|        P.M.---|                             x4 
e|---------------------------------|------------------------||-------------------------| 
B|---------------------------------|------------------------||-------------------------| 
G|---------------------------------|-----------------------o||-------------------------| 
D|---------------------------------|------------------------||-------------------------| 
A|--0--0--0--0--0------0--0--0--0--|--0----2----3----/10---o||--8----------------------| 
E|--0--0--0--0--0------0--0--0--0--|--0----2----3----/10----||--8----------------------| 
A|--0--0--0--0--0------0--0--0--0--|--0----2----3----/10----||--8----------------------| 


Outro 
===== 

Repeat until end: 

e||----------------------------------|--------------------------|| 
B||----------------------------------|--------------------------|| 
G||o---------------------------------|-------------------------o|| 
D||----------------------------------|--------------------------|| 
A||o---------------------------------|-------------------------o|| 
E||----------------------------------|--------------------------|| 
A||--2pbr----2pbr----2pbr----2pbr----|--1pbr--1pbr--1pbr--1pbr--|| 

pbr = pre-bend a half step and then release 

Last note: 
    bend up a half step, and slowly release and bend back and forth 
e|---------------------------| 
B|---------------------------| 
G|---------------------------| 
D|---------------------------| 
A|--2b3----------------------| 
E|--2b3----------------------| 
A|--2b3----------------------| 


Legend 
====== 

P.M. = Palm mute 

/    = slide 

x    = strum note w/finger laid across string but do not fret note, so that the string is muted 

||   || 
||o o|| 
||   || = repeat sign (repeat everything between these lines. repeat more if specified above last line) 
||o o|| 
||   || 

b    = bend string 
pbr  = pre-bend string and then release 
  

top 5 | pain of salvation
top
Outras músicas do artista letras do(a) Pain of Salvation
1.
1979
Top cifras »Top artistas »
Petaxxon Comunicação Online
Cifras.com.br - Melhor e mais completo site de cifras e tablaturas do Brasil
Mais de 1 milhão de acordes de músicas cadastradas desde 2003
As informações contidas no nosso site são colaborações de seus usuários e podem conter erros, sendo assim, não nos responsabilizamos sobre nenhuma destas.
close
menos
mais
close
Cor dos acordes:

Cor da letra:

 

save
close
close
 
redimensionar